top separator

Home

Forum

What's New

Submit a Tab

FAQ

Links

Contact Us

Link to Us

MuSpy.com

MetalTabs.com logo

Bands

0-9

A

B

C

D

E

F

G

H

I

J

K

L

M

N

O

P

Q

R

S

T

U

V

W

X

Y

Z

Search

What

Where
 

Agalloch - "The Wolves of Timberline" Guitar Tab

Plain Text Version
More Agalloch Tabs

Hits: 7501
Rated: 4.40 out of 5 (10 votes)
Updated: 2005-03-20 14:58:54

 

By:

Kalmahswamp

sendpm.gif

email.gif

Important note
This tab is available online because we obtained explicit permission from Agalloch or their label.


#----------------------------------PLEASE NOTE---------------------------------#
#This file is the author's own work and represents their interpretation of the #
#song. You may only use this file for private study, scholarship, or research. #
#Unless specified otherwise, this is NOT an official tab from the band members.#
#------------------------------------------------------------------------------#

  Visit MetalTabs.com for more metal tablature
  
Band:  Agalloch
Album: Agalloch/Nest Split LP
Song:  The Wolves of Timberline

Copyright (c)  Infinite Vinyl 2004

Transcribed By: Paul Sullivan
Email:          kalmahswamp@yahoo.com




Tunning E A D G B E

RYTHEM:
E-----------------------------------------------------------------------
B-----------------------------------------------------------------------
G--------------------------------------------------------------5--------
D-----7-----7----------5-----5----------7-----7----------5---------5----
A---5---5-------5----7---7-------7----5---5-------5----7---7------------
E-5-------5---5----8-------8---8----5-------5---5----8-------8---8------

----------------------------------------------------------------------|
----------------------------------------------------------3-----------|
-----------------------------------------0--------------4---4---------|
-----7-----7----------5-----5----------1---1----------5-------5-------|
---5---5-------5----7---7-------7----3-------2------5-----------5-----|
-5-------5---5----8-------8---8----1-----------1--3-------------------|


LEAD:
E----------------------------------------------------------
B-13-------13-------13-------12-------12h13p12-------------
G----14-------14-------14-------14-------------14----14----
D-------14-------14----------------14-------------14-------
A----------------------------------------------------------
E----------------------------------------------------------

-----------------------------------------------------------------
-13-------13-------13-----15slide17-------15-------15-13-12------
----14-------14-------14------------14-------14------------------
-------14-------14---------------------14-------14---------------
-----------------------------------------------------------------
-----------------------------------------------------------------

----------------------------------------------------------------------------|
13-------13-------13----12-------12-------12--------------------------------|
---14-------14-------14----14-------14-------14------------------------9-7--|
------14-------14-------------14-------14--------7-9-10-10-9-7--7-9-10-----9|
----------------------------------------------------------------------------|
----------------------------------------------------------------------------|

Repeat last 12 notes of the lead while rythem continues after necessary times
through

(Rythem and final 12 notes continue...)

New Lead: (pay close attention, he keeps subtley evolving the riff, the riff
goes back to the start after this...)
E-------------12-10-----------------12-13-----------------12-10---------
B-10-12-13-10-------13--10-12-13-10-------13--10-12-13-10-------10-12-13
G-----------------------------------------------------------------------
D-----------------------------------------------------------------------
A-----------------------------------------------------------------------
E-----------------------------------------------------------------------

----12-10-----------------12-10-------------12-10----------12-10---------
-10-------13-10-12-13-10--------10-12-13-10-------10-12-10-------13-12---
-------------------------------------------------------------------------
-------------------------------------------------------------------------
-------------------------------------------------------------------------
-------------------------------------------------------------------------

----------12-10----------------12-10-------------------------------|
-10-12-10-------13-12-10-12-10-------13-12-------------------------|
-------------------------------------------------------------------|
-------------------------------------------------------------------|
-------------------------------------------------------------------|
-------------------------------------------------------------------|

Resolution:
E-----------------------
B-----------------------
G-------5-7slide9-7-5---
D-----7-----------------
A---7-------------------
E-1---------------------

A mi: (strum through strings)
----|
-5--|
-5--|
-7--|
-7--|
-5--|

  Visit MetalTabs.com for more metal tablature

bottom separator

Contact Us | Privacy Policy | Disclaimer | Legal Notice
Copyright © 2001-2014 MetalTabs.com. All Rights Reserved.