top separator

Home

Forum

What's New

Submit a Tab

FAQ

Links

Contact Us

Link to Us

MetalTabs.com logo

Bands

0-9

A

B

C

D

E

F

G

H

I

J

K

L

M

N

O

P

Q

R

S

T

U

V

W

X

Y

Z

Search

What

Where
 

Gorguts - "Disincarnated" Guitar Tab

Plain Text Version
More Gorguts Tabs

Hits: 4332
Rated: 4.00 out of 5 (4 votes)
Updated: 2005-03-29 16:24:53

 

By:

Cloaca

sendpm.gif

email.gif

Important note
This tab is available online because we obtained explicit permission from Gorguts or their label.


#----------------------------------PLEASE NOTE---------------------------------#
#This file is the author's own work and represents their interpretation of the #
#song. You may only use this file for private study, scholarship, or research. #
#Unless specified otherwise, this is NOT an official tab from the band members.#
#------------------------------------------------------------------------------#

  Visit MetalTabs.com for more metal tablature
  
Gorguts - 'Disincarnated'
Considered Dead (1991)
Roadrunner Records

Tabbed by Tim Snowsill (Tim_Snowsill@hotmail.com)
11/03/05

________________________________________________________________________________
Tab Rhythm is hardly perfect so listen to CD. Any comments or corrections can be
e-mailed to above address.

________________________________________________________________________________
Tuning C# F# B E G# C#

Gtr I - Luc Lemay
Gtr II - Sylvain Marcoux
Gtr III - Lead Guitar


    Q=180
   4/4
    Gtrs I, II
    PM----------------------------|         PM|
    S S S S S S S S S S S S S S S S   S S E E E S S E E E  4x
||----------------------------------|----------------------||
||o---------------------------------|---------------------o||
||----------------------------------|----------------------||
||----------------------------------|----------------------||
||o---------------------------------|-3-3-3-3-3-3-3-3-4-3-o||
||--5-5-5-5-5-5-5-5-2-2-2-2-2-2-2-2-|-1-1-1-1-1-1-1-1-2-1--||


  PM----|     PM--------|   PM  PM    PM----|     PM--------|   PM  PM
  E E E E E E E E   E E E E E E E E   E E E E E E E E   E E E E E E E E
|-----------------|-----------------|-----------------|-----------------|
|-----------------|-----------------|-----------------|-----------------|
|-----------------|-----------------|-----------------|-----------------|
|-----------------|-----------------|-----------------|-----------------|
|---------5-4-----|-------3---4---3-|---------5-4-----|-------3---4---3-|
|-2-4-5-4-----2-4-|-4-2-1---1---1---|-2-4-5-4-----2-4-|-4-2-1---1---1---|


  Gtr I
  PM----|     PM--------|   PM  PM    PM----|     PM--------|   PM  PM
  E E E E E E E E   E E E E E E E E   E E E E E E E E   E E E E E E E E
|-----------------|-----------------|-----------------|-----------------|
|-----------------|-----------------|-----------------|-----------------|
|-----------------|-----------------|-----------------|-----------------|
|-----------------|-----------------|-----------------|-----------------|
|---------5-4-----|-------3---4---3-|---------5-4-----|-------3---4---3-|
|-2-4-5-4-----2-4-|-4-2-1---1---1---|-2-4-5-4-----2-4-|-4-2-1---1---1---|
|
| Gtr II
| PM----|     PM--------|   PM  PM    PM----|     PM--------|   PM  PM
| E E E E E E E E   E E E E E E E E   E E E E E E E E   E E E E E E E E
|-----------------|-----------------|-----------------|-----------------|
|-----------------|-----------------|-----------------|-----------------|
|-----------------|-----------------|-----------------|-----------------|
|---------7-6-----|-------5---6---5-|---------7-6-----|-------5---6---5-|
|-4-6-7-6-----4-6-|-6-4-3---3---3---|-4-6-7-6-----4-6-|-6-4-3---3---3---|
|-----------------|-----------------|-----------------|-----------------|


    Gtrs I, II
    PM----------------------------|         PM|
    S S S S S S S S S S S S S S S S   S S E E E S S E E E  4x
||----------------------------------|----------------------||
||o---------------------------------|---------------------o||
||----------------------------------|----------------------||
||----------------------------------|----------------------||
||o---------------------------------|-3-3-3-3-3-3-3-3-4-3-o||
||--5-5-5-5-5-5-5-5-2-2-2-2-2-2-2-2-|-1-1-1-1-1-1-1-1-2-1--||


    Gtr I
                               ~
    E E E E E E E E    E E E E Q   Q
||------------------|------------------|
||o-------------9---|-10---6---7-------|
||----------7-6---6-|----6---6---------|
||--4-6-7-6---------|------------------|
||o-----------------|------------------|
||------------------|------------------|
|
|   Gtr II
|   H       H          Q   Q   E E E E
||------------------|------------------|
||o-----------------|------------------|
||------------------|------------------|
||--4-------8-------|--7---3---4-------|
||o-4-------8-------|--7---3---4-3-3-3-|
||--2-------6-------|--5---1---2-1-1-1-|


                   1.              2.
  E E E E E E E E   Q  Q  Q  Q      Q  Q  Q  Q
|-----------------|--------------||---------------|
|-------------9---|-------------o||---------------|
|---------7-6---6-|--------------||---------------|
|-4-6-7-6---------|--------------||---------------|
|-----------------|-7--3--4--3--o||---------------|
|-----------------|--------------||-5--1--2--1----|
|
| H       H         Q  Q  Q  Q      Q  Q  Q  Q
|-----------------|--------------||---------------|
|-----------------|-------------o||---------------|
|-----------------|--------------||---------------|
|-4-------8-------|-7--3--4--3---||-7--3--4--3----|
|-4-------8-------|-7--3--4--3--o||-7--3--4--3----|
|-2-------6-------|-5--1--2--1---||-5--1--2--1----|


    Gtrs I, II
    PM----|     PM--------|   PM  PM    PM----|     PM--------|   PM  PM
    E E E E E E E E   E E E E E E E E   E E E E E E E E   E E E E E E E E
||------------------|-----------------|-----------------|------------------|
||o-----------------|-----------------|-----------------|------------------|
||------------------|-----------------|-----------------|------------------|
||------------------|-----------------|-----------------|------------------|
||o---------5-4-----|-------3---4---3-|---------5-4-----|-------3---4---3--|
||--2-4-5-4-----2-4-|-4-2-1---1---1---|-2-4-5-4-----2-4-|-4-2-1---1---1----|


  Gtr I
  PM----|     PM--------|   PM  PM    PM----|     PM|
  E E E E E E E E   E E E E E E E E   E E E E E E E E   Q  Q  Q  Q
|-----------------|-----------------|-----------------|--------------||
|-----------------|-----------------|-----------------|-------------o||
|-----------------|-----------------|-----------------|--------------||
|-----------------|-----------------|-----------------|--------------||
|---------5-4-----|-------3---4---3-|---------5-4-----|-7--3--4--3--o||
|-2-4-5-4-----2-4-|-4-2-1---1---1---|-2-4-5-4-----2-4-|-5--1--2--1---||
|
| Gtr II
| PM----|     PM--------|   PM  PM    PM----|     PM|
| E E E E E E E E   E E E E E E E E   E E E E E E E E   Q  Q  Q  Q
|-----------------|-----------------|-----------------|--------------||
|-----------------|-----------------|-----------------|-------------o||
|-----------------|-----------------|-----------------|--------------||
|---------7-6-----|-------5---6---5-|---------7-6-----|-9--5--6--5---||
|-4-6-7-6-----4-6-|-6-4-3---3---3---|-4-6-7-6-----4-6-|-7--3--4--3--o||
|-----------------|-----------------|-----------------|--------------||


    Gtrs I, II
    PM----------------------------|         PM|
    S S S S S S S S S S S S S S S S   S S E E E S S E E E  3x
||----------------------------------|----------------------||
||o---------------------------------|---------------------o||
||----------------------------------|----------------------||
||----------------------------------|----------------------||
||o---------------------------------|-3-3-3-3-3-3-3-3-4-3-o||
||--5-5-5-5-5-5-5-5-2-2-2-2-2-2-2-2-|-1-1-1-1-1-1-1-1-2-1--||


  PM----------------------------|         PM|
  S S S S S S S S S S S S S S S S   S S E E E E Q.
|---------------------------------|------------------|
|---------------------------------|------------------|
|---------------------------------|------------------|
|---------------------------------|------------------|
|---------------------------------|-3-3-3-3-3-3------|
|-5-5-5-5-5-5-5-5-2-2-2-2-2-2-2-2-|-1-1-1-1-1-1------|


    Q=220
    Gtr I
    PM--------------------------------------------------------------|
    S S S S S S S S S S S S S S S S   S S S S S S S S S S S S S S S S
||----------------------------------|----------------------------------|
||o---------------------------------|----------------------------------|
||------------------4-4-4-4-4-4-4-4-|-----------------4-4-4-4-4-4-4-4--|
||--2-2-2-2-2-2-2-2-----------------|-5-5-5-5-5-5-5-5------------------|
||o---------------------------------|----------------------------------|
||----------------------------------|----------------------------------|
|
|   Gtr II
|   PM--------------------------------------------------------------|
|   S S S S S S S S S S S S S S S S   S S S S S S S S S S S S S S S S
||----------------------------------|----------------------------------|
||o---------------------------------|----------------------------------|
||----------------------------------|----------------------------------|
||------------------2-2-2-2-2-2-2-2-|-2-2-2-2-2-2-2-2-2-2-2-2-2-2-2-2--|
||o---------------------------------|----------------------------------|
||--0-0-0-0-0-0-0-0-----------------|----------------------------------|


  PM----------------------------------------------|
  S S S S S S S S S S S S S S S S   S S S S S S S S Q  Q
|---------------------------------|------------------------||
|---------------------------------|-----------------------o||
|-----------------3-3-3-3-3-3-3-3-|-----------------6--3---||
|-4-4-4-4-4-4-4-4-----------------|-5-5-5-5-5-5-5-5-4--1---||
|---------------------------------|-----------------------o||
|---------------------------------|------------------------||
|
| PM----------------------------------------------|
| S S S S S S S S S S S S S S S S   S S S S S S S S Q  Q
|---------------------------------|------------------------||
|---------------------------------|-----------------------o||
|---------------------------------|------------------------||
|-----------------1-1-1-1-1-1-1-1-|------------------------||
|-2-2-2-2-2-2-2-2-----------------|-3-3-3-3-3-3-3-3-9--6--o||
|---------------------------------|-----------------7--4---||


    PM--------------------------------------------------------------|
    S S S S S S S S S S S S S S S S   S S S S S S S S S S S S S S S S
||----------------------------------|----------------------------------|
||o---------------------------------|----------------------------------|
||----------------------------------|----------------------------------|
||------------------7-7-7-7-7-7-7-7-|-----------------7-7-7-7-7-7-7-7--|
||o-5-5-5-5-5-5-5-5-----------------|-8-8-8-8-8-8-8-8------------------|
||----------------------------------|----------------------------------|
|
|   PM--------------------------------------------------------------|
|   S S S S S S S S S S S S S S S S   S S S S S S S S S S S S S S S S
||----------------------------------|----------------------------------|
||o---------------------------------|----------------------------------|
||----------------------------------|----------------------------------|
||----------------------------------|----------------------------------|
||o-----------------5-5-5-5-5-5-5-5-|-5-5-5-5-5-5-5-5-5-5-5-5-5-5-5-5--|
||--3-3-3-3-3-3-3-3-----------------|----------------------------------|


  PM----------------------------------------------|
  S S S S S S S S S S S S S S S S   S S S S S S S S Q  Q
|---------------------------------|------------------------||
|---------------------------------|-----------------------o||
|---------------------------------|------------------------||
|-----------------6-6-6-6-6-6-6-6-|-----------------9--6---||
|-7-7-7-7-7-7-7-7-----------------|-8-8-8-8-8-8-8-8-7--4--o||
|---------------------------------|------------------------||
|
| PM----------------------------------------------|
| S S S S S S S S S S S S S S S S   S S S S S S S S Q  Q
|---------------------------------|------------------------||
|---------------------------------|-----------------------o||
|---------------------------------|------------------------||
|---------------------------------|------------------------||
|-----------------4-4-4-4-4-4-4-4-|-----------------7--4--o||
|-5-5-5-5-5-5-5-5-----------------|-6-6-6-6-6-6-6-6-5--2---||


    PM--------------------------------------------------------------|
    S S S S S S S S S S S S S S S S   S S S S S S S S S S S S S S S S
||----------------------------------|----------------------------------|
||o---------------------------------|----------------------------------|
||------------------4-4-4-4-4-4-4-4-|-----------------4-4-4-4-4-4-4-4--|
||--2-2-2-2-2-2-2-2-----------------|-5-5-5-5-5-5-5-5------------------|
||o---------------------------------|----------------------------------|
||----------------------------------|----------------------------------|
|
|   PM--------------------------------------------------------------|
|   S S S S S S S S S S S S S S S S   S S S S S S S S S S S S S S S S
||----------------------------------|----------------------------------|
||o---------------------------------|----------------------------------|
||----------------------------------|----------------------------------|
||------------------2-2-2-2-2-2-2-2-|-2-2-2-2-2-2-2-2-2-2-2-2-2-2-2-2--|
||o---------------------------------|----------------------------------|
||--0-0-0-0-0-0-0-0-----------------|----------------------------------|


  PM----------------------------------------------|
  S S S S S S S S S S S S S S S S   S S S S S S S S Q  Q
|---------------------------------|------------------------||
|---------------------------------|-----------------------o||
|-----------------3-3-3-3-3-3-3-3-|-----------------6--3---||
|-4-4-4-4-4-4-4-4-----------------|-5-5-5-5-5-5-5-5-4--1---||
|---------------------------------|-----------------------o||
|---------------------------------|------------------------||
|
| PM----------------------------------------------|
| S S S S S S S S S S S S S S S S   S S S S S S S S Q  Q
|---------------------------------|------------------------||
|---------------------------------|-----------------------o||
|---------------------------------|------------------------||
|-----------------1-1-1-1-1-1-1-1-|------------------------||
|-2-2-2-2-2-2-2-2-----------------|-3-3-3-3-3-3-3-3-9--6--o||
|---------------------------------|-----------------7--4---||


    PM--------------------------------------------------------------|
    S S S S S S S S S S S S S S S S   S S S S S S S S S S S S S S S S
||----------------------------------|----------------------------------|
||o---------------------------------|----------------------------------|
||----------------------------------|----------------------------------|
||------------------7-7-7-7-7-7-7-7-|-----------------7-7-7-7-7-7-7-7--|
||o-5-5-5-5-5-5-5-5-----------------|-8-8-8-8-8-8-8-8------------------|
||----------------------------------|----------------------------------|
|
|   PM--------------------------------------------------------------|
|   S S S S S S S S S S S S S S S S   S S S S S S S S S S S S S S S S
||----------------------------------|----------------------------------|
||o---------------------------------|----------------------------------|
||----------------------------------|----------------------------------|
||----------------------------------|----------------------------------|
||o-----------------5-5-5-5-5-5-5-5-|-5-5-5-5-5-5-5-5-5-5-5-5-5-5-5-5--|
||--3-3-3-3-3-3-3-3-----------------|----------------------------------|


  PM----------------------------------------------|
  S S S S S S S S S S S S S S S S   S S S S S S S S Q  Q
|---------------------------------|------------------------||
|---------------------------------|-----------------------o||
|---------------------------------|------------------------||
|-----------------6-6-6-6-6-6-6-6-|-----------------9--6---||
|-7-7-7-7-7-7-7-7-----------------|-8-8-8-8-8-8-8-8-7--4--o||
|---------------------------------|------------------------||
|
| PM----------------------------------------------|
| S S S S S S S S S S S S S S S S   S S S S S S S S Q  Q
|---------------------------------|------------------------||
|---------------------------------|-----------------------o||
|---------------------------------|------------------------||
|---------------------------------|------------------------||
|-----------------4-4-4-4-4-4-4-4-|-----------------7--4--o||
|-5-5-5-5-5-5-5-5-----------------|-6-6-6-6-6-6-6-6-5--2---||


                  Q=140
  PM-------|
  q  q  q  q      S S S S S S S S S S S S S S S S
|-------------||----------------------------------|
|-------------||o---------------------------------|
|-------------||----------------------------------|
|-------------||----------------------------------|
|-4--4--4--4--||o---------------------------------|
|-2--2--2--2--||--2-2-2-2-2-2-2-2-2-2-2-2-2-2-2-2-|
|
| PM-------|
| q  q  q  q      S S S S S S S S S S S S S S S S
|-------------||----------------------------------|
|-------------||o---------------------------------|
|-------------||----------------------------------|
|-------------||----------------------------------|
|-4--4--4--4--||o---------------------------------|
|-2--2--2--2--||--2-2-2-2-2-2-2-2-2-2-2-2-2-2-2-2-|


  S S S S S S S S S S S S S S S S    4x
|------------------------------------||
|-----------------------------------o||
|------------------------------------||
|------------------------------------||
|-----------------------------------o||
|-2-2-2-2-1-1-1-1-5-5-5-5-1-1-1-1----||
|
| S S S S S S S S S S S S S S S S    4x
|------------------------------------||
|-----------------------------------o||
|------------------------------------||
|------------------------------------||
|-----------------------------------o||
|-2-2-2-2-1-1-1-1-5-5-5-5-1-1-1-1----||


  E   Q.           H                 S S S S S S S S S S S S S S S S
|----------------------------------|---------------------------------|
|----------------------------------|---------------------------------|
|----------------------------------|---------------------------------|
|----------------------------------|---------------------------------|
|-4--------------------------------|---------------------------------|
|-2--------------------------------|-2-2-2-2-1-1-1-1-5-5-5-5-1-1-1-1-|
|
| S S S  S S S S S S S S S S S S S   S S S S S S S S S S S S S S S S
|----------------------------------|---------------------------------|
|----------------------------------|---------------------------------|
|----------------------------------|---------------------------------|
|----------------------------------|---------------------------------|
|----------------------------------|---------------------------------|
|-2-2-2--2-2-2-2-2-2-2-2-2-2-2-2-2-|-2-2-2-2-1-1-1-1-5-5-5-5-1-1-1-1-|


    S S S S S S S S S S S S S S S S   S S S S S S S S S S S S S S S S
||----------------------------------|-----------------------------------||
||o---------------------------------|----------------------------------o||
||----------------------------------|-----------------------------------||
||----------------------------------|-----------------------------------||
||o---------------------------------|----------------------------------o||
||--2-2-2-2-2-2-2-2-2-2-2-2-2-2-2-2-|-2-2-2-2-1-1-1-1-5-5-5-5-1-1-1-1---||
|
|   S S S S S S S S S S S S S S S S   S S S S S S S S S S S S S S S S
||----------------------------------|-----------------------------------||
||o---------------------------------|----------------------------------o||
||----------------------------------|-----------------------------------||
||----------------------------------|-----------------------------------||
||o---------------------------------|----------------------------------o||
||--2-2-2-2-2-2-2-2-2-2-2-2-2-2-2-2-|-2-2-2-2-1-1-1-1-5-5-5-5-1-1-1-1---||


  S S S S S S S S S S S S S S S S   S S S S S S S S Q  E E
|---------------------------------|------------------------|
|---------------------------------|------------------------|
|---------------------------------|------------------------|
|---------------------------------|------------------------|
|---------------------------------|-----------------3--2---|
|-2-2-2-2-2-2-2-2-2-2-2-2-2-2-2-2-|-2-2-2-2-1-1-1-1-1--0---|
|
| S S S S S S S S S S S S S S S S   S S S S S S S S Q  E E
|---------------------------------|------------------------|
|---------------------------------|------------------------|
|---------------------------------|------------------------|
|---------------------------------|------------------------|
|---------------------------------|-----------------3--2---|
|-2-2-2-2-2-2-2-2-2-2-2-2-2-2-2-2-|-2-2-2-2-1-1-1-1-1--0---|


    Q=220
    PM--------------------------------------------------------------|
    S S S S S S S S S S S S S S S S   S S S S S S S S S S S S S S S S
||----------------------------------|----------------------------------|
||o---------------------------------|----------------------------------|
||------------------4-4-4-4-4-4-4-4-|-----------------4-4-4-4-4-4-4-4--|
||--2-2-2-2-2-2-2-2-----------------|-5-5-5-5-5-5-5-5------------------|
||o---------------------------------|----------------------------------|
||----------------------------------|----------------------------------|
|
|   PM--------------------------------------------------------------|
|   S S S S S S S S S S S S S S S S   S S S S S S S S S S S S S S S S
||----------------------------------|----------------------------------|
||o---------------------------------|----------------------------------|
||----------------------------------|----------------------------------|
||------------------2-2-2-2-2-2-2-2-|-2-2-2-2-2-2-2-2-2-2-2-2-2-2-2-2--|
||o---------------------------------|----------------------------------|
||--0-0-0-0-0-0-0-0-----------------|----------------------------------|


  PM----------------------------------------------|
  S S S S S S S S S S S S S S S S   S S S S S S S S Q  Q
|---------------------------------|------------------------||
|---------------------------------|-----------------------o||
|-----------------3-3-3-3-3-3-3-3-|-----------------6--3---||
|-4-4-4-4-4-4-4-4-----------------|-5-5-5-5-5-5-5-5-4--1---||
|---------------------------------|-----------------------o||
|---------------------------------|------------------------||
|
| PM----------------------------------------------|
| S S S S S S S S S S S S S S S S   S S S S S S S S Q  Q
|---------------------------------|------------------------||
|---------------------------------|-----------------------o||
|---------------------------------|------------------------||
|-----------------1-1-1-1-1-1-1-1-|------------------------||
|-2-2-2-2-2-2-2-2-----------------|-3-3-3-3-3-3-3-3-9--6--o||
|---------------------------------|-----------------7--4---||


    PM--------------------------------------------------------------|
    S S S S S S S S S S S S S S S S   S S S S S S S S S S S S S S S S
||----------------------------------|----------------------------------|
||o---------------------------------|----------------------------------|
||----------------------------------|----------------------------------|
||------------------7-7-7-7-7-7-7-7-|-----------------7-7-7-7-7-7-7-7--|
||o-5-5-5-5-5-5-5-5-----------------|-8-8-8-8-8-8-8-8------------------|
||----------------------------------|----------------------------------|
|
|   PM--------------------------------------------------------------|
|   S S S S S S S S S S S S S S S S   S S S S S S S S S S S S S S S S
||----------------------------------|----------------------------------|
||o---------------------------------|----------------------------------|
||----------------------------------|----------------------------------|
||----------------------------------|----------------------------------|
||o-----------------5-5-5-5-5-5-5-5-|-5-5-5-5-5-5-5-5-5-5-5-5-5-5-5-5--|
||--3-3-3-3-3-3-3-3-----------------|----------------------------------|


  PM----------------------------------------------|
  S S S S S S S S S S S S S S S S   S S S S S S S S Q  Q
|---------------------------------|------------------------||
|---------------------------------|-----------------------o||
|---------------------------------|------------------------||
|-----------------6-6-6-6-6-6-6-6-|-----------------9--6---||
|-7-7-7-7-7-7-7-7-----------------|-8-8-8-8-8-8-8-8-7--4--o||
|---------------------------------|------------------------||
|
| PM----------------------------------------------|
| S S S S S S S S S S S S S S S S   S S S S S S S S Q  Q
|---------------------------------|------------------------||
|---------------------------------|-----------------------o||
|---------------------------------|------------------------||
|---------------------------------|------------------------||
|-----------------4-4-4-4-4-4-4-4-|-----------------7--4--o||
|-5-5-5-5-5-5-5-5-----------------|-6-6-6-6-6-6-6-6-5--2---||


  Gtr I
  PM--------------------------------------------------------------------|
  S  S S S S S S S S S S S S S   S    S   S S S S S S S S S S S S S S S S
|---------------------------------------|---------------------------------|
|---------------------------------------|---------------------------------|
|------------------4-4-4-4-4-4---4----4-|-----------------4-4-4-4-4-4-4-4-|
|-2--2-2-2-2-2-2-2----------------------|-5-5-5-5-5-5-5-5-----------------|
|---------------------------------------|---------------------------------|
|---------------------------------------|---------------------------------|
|
| Gtr II
| PM--------------------------------------------------------------------|
| S  S S S S S S S S S S S S S   S    S   S S S S S S S S S S S S S S S S
|---------------------------------------|---------------------------------|
|---------------------------------------|---------------------------------|
|---------------------------------------|---------------------------------|
|------------------2-2-2-2-2-2---2----2-|-2-2-2-2-2-2-2-2-2-2-2-2-2-2-2-2-|
|---------------------------------------|---------------------------------|
|-0--0-0-0-0-0-0-0----------------------|---------------------------------|
|
| Gtr III
| ~~                                      ~
|                          |---3----|
| H.                       E   E    E     W
|---------------------------------------|---------------------------------|
|---------------------------------------|---------------------------------|
|---------------------------------------|---------------------------------|
|--------------------------7---9---10---|-9-------------------------------|
|-7-------------------------------------|---------------------------------|
|---------------------------------------|---------------------------------|


  PM-----------------------------------------------------------|
  S S   S    S S S   S    S S S S S  S S S S   S  S S  S S S S S Q  Q
|--------------------------------------------|-------------------------|
|--------------------------------------------|-------------------------|
|---------------------------3-3-3-3--3-3-3-3-|-------------------6--3--|
|-4-4---4----4-4-4---4----4------------------|-5--5-5--5-5-5-5-5-4--1--|
|--------------------------------------------|-------------------------|
|--------------------------------------------|-------------------------|
|
| PM-----------------------------------------------------------|
| S S   S    S S S   S    S S S S S  S S S S   S  S S  S S S S S Q  Q
|--------------------------------------------|-------------------------|
|--------------------------------------------|-------------------------|
|--------------------------------------------|-------------------------|
|---------------------------1-1-1-1--1-1-1-1-|-------------------------|
|-2-2---2----2-2-2---2----2------------------|-3--3-3--3-3-3-3-3-9--6--|
|--------------------------------------------|-------------------7--4--|
|
| |---3----|   |---3----|
| E   E    E   E   E    E   Q        Q         S  S Q.           H
|--------------------------------------------|-------------------7-----|
|-----------------------------------10-------|-9-10-9------------------|
|--------------7---9---10---9----------------|-------------------------|
|-7---9---10---------------------------------|-------------------------|
|--------------------------------------------|-------------------------|
|--------------------------------------------|-------------------------|


    PM-----------------------------------
    S  S S S S S  S  S S S S S  S S S S
|---------------------------------------|
|---------------------------------------|
|----------------------4-4-4-4--4-4-4-4-|
|---2--2-2-2-2-2--2--2------------------|
|---------------------------------------|
|---------------------------------------|
|
|   PM-----------------------------------
|   S  S S S S S  S  S S S S S  S S S S
|---------------------------------------|
|---------------------------------------|
|---------------------------------------|
|----------------------2-2-2-2--2-2-2-2-|
|---------------------------------------|
|---0--0-0-0-0-0--0--0------------------|
|
|   Q.            Q.            Q
|-/16------------15------------13-------|
|---------------------------------------|
|---------------------------------------|
|---------------------------------------|
|---------------------------------------|
|---------------------------------------|


 -------------------------------------|
   S  S S S S S  S  S S S S S   S S S S
|---------------------------------------|
|---------------------------------------|
|---------------------4-4-4-4---4-4-4-4-|
|--5--5-5-5-5-5--5--5-------------------|
|---------------------------------------|
|---------------------------------------|
|
|-------------------------------------|
|  S  S S S S S  S  S S S S S   S S S S
|---------------------------------------|
|---------------------------------------|
|---------------------------------------|
|--2--2-2-2-2-2--2--2-2-2-2-2---2-2-2-2-|
|---------------------------------------|
|---------------------------------------|
|
|  Q.            Q.             Q
|-12------------------------------------|
|---------------13------------/16-------|
|---------------------------------------|
|---------------------------------------|
|---------------------------------------|
|---------------------------------------|


   PM------------------------------------------------------|
   S  S S S S S  S  S S S S S  S S S S    S    S S S S S S S Q    Q
|--------------------------------------|------------------------------|
|--------------------------------------|------------------------------|
|---------------------3-3-3-3--3-3-3-3-|---------------------6----3---|
|--4--4-4-4-4-4--4--4------------------|--5----5-5-5-5-5-5-5-4----1---|
|--------------------------------------|------------------------------|
|--------------------------------------|------------------------------|
|
|  PM------------------------------------------------------|
|  S  S S S S S  S  S S S S S  S S S S    S    S S S S S S S Q    Q
|--------------------------------------|------------------------------|
|--------------------------------------|------------------------------|
|--------------------------------------|------------------------------|
|---------------------1-1-1-1--1-1-1-1-|------------------------------|
|--2--2-2-2-2-2--2--2------------------|--3----3-3-3-3-3-3-3-9----6---|
|--------------------------------------|---------------------7----4---|
|
|  Q.            Q.            Q          H.                     +Q
|---------------13------------16-------|-15b16r=================(15)--|
|-15-----------------------------------|------------------------------|
|--------------------------------------|------------------------------|
|--------------------------------------|------------------------------|
|--------------------------------------|------------------------------|
|--------------------------------------|------------------------------|


   PM----------------------------------------------
   S S  S  S   S S  S  S   S S  S  S   S S  S  S
|-------------------------------------------------|
|-------------------------------------------------|
|-------------------------------------------------|
|--------------------------7-7--7--7---7-7--7--7--|
|--5-5--5--5---5-5--5--5--------------------------|
|-------------------------------------------------|
|
|  PM----------------------------------------------
|  S S  S  S   S S  S  S   S S  S  S   S S  S  S
|-------------------------------------------------|
|-------------------------------------------------|
|-------------------------------------------------|
|-------------------------------------------------|
|--------------------------5-5--5--5---5-5--5--5--|
|--3-3--3--3---3-3--3--3--------------------------|
|
|  T           T           T           T
|  |---3---|   |---3---|   |---3---|   |---3---|
|  E.   S. S.  E.   S. S.  E.   S. S.  E.   S. S.
|-20p==14h15--19p==14h15--19p==14h15--19p==14h15--|
|-------------------------------------------------|
|-------------------------------------------------|
|-------------------------------------------------|
|-------------------------------------------------|
|-------------------------------------------------|


 ---------------------------------------------|
   S S  S  S   S S  S  S   S S  S  S   S S  S  S
|-------------------------------------------------|
|-------------------------------------------------|
|-------------------------------------------------|
|--------------------------7-7--7--7---7-7--7--7--|
|--8-8--8--8---8-8--8--8--------------------------|
|-------------------------------------------------|
|
|---------------------------------------------|
|  S S  S  S   S S  S  S   S S  S  S   S S  S  S
|-------------------------------------------------|
|-------------------------------------------------|
|-------------------------------------------------|
|-------------------------------------------------|
|--5-5--5--5---5-5--5--5---5-5--5--5---5-5--5--5--|
|-------------------------------------------------|
|
|  T           T           T           T
|  |---3---|   |---3---|   |---3---|   |---3---|
|  E.   S. S.  E.   S. S.  E.   S. S.  E.   S. S.
|-18p==13h14--18p==13h14--18p==13h14--18p==13h14--|
|-------------------------------------------------|
|-------------------------------------------------|
|-------------------------------------------------|
|-------------------------------------------------|
|-------------------------------------------------|


   PM----------------------------------------------
   S S  S  S   S S  S  S   S S  S  S   S S  S  S
|-------------------------------------------------|
|-------------------------------------------------|
|-------------------------------------------------|
|--------------------------6-6--6--6---6-6--6--6--|
|--7-7--7--7---7-7--7--7--------------------------|
|-------------------------------------------------|
|
|  PM----------------------------------------------
|  S S  S  S   S S  S  S   S S  S  S   S S  S  S
|-------------------------------------------------|
|-------------------------------------------------|
|-------------------------------------------------|
|-------------------------------------------------|
|--------------------------4-4--4--4---4-4--4--4--|
|--5-5--5--5---5-5--5--5--------------------------|
|
|  T           T           T           T
|  |---3---|   |---3---|   |---3---|   |---3---|
|  E.   S. S.  E.   S. S.  E.   S. S.  E.   S. S.
|-15p==10h11--15p==10h11--15p==10h11--15p==10h11--|
|-------------------------------------------------|
|-------------------------------------------------|
|-------------------------------------------------|
|-------------------------------------------------|
|-------------------------------------------------|


 -------------------|
   S S  S S   S S S  S   Q        Q
|------------------------------------------|
|------------------------------------------|
|------------------------------------------|
|------------------------9--------6--------|
|--8-8--8-8---8-8-8--8---7--------4--------|
|------------------------------------------|
|
|-------------------|
|  S S  S S   S S S  S   Q        Q
|------------------------------------------|
|------------------------------------------|
|------------------------------------------|
|------------------------------------------|
|------------------------7--------4--------|
|--6-6--6-6---6-6-6--6---5--------2--------|
|
|  T          T          T        T
|  |--3---|   |--3---|   |-3--|   |-3--|
|  E.   S.S.  E.  S. S.  E.S. S.  E.S. S.
|-14p==10p9--14p==9h10--14p9h10--14p9h10---|
|------------------------------------------|
|------------------------------------------|
|------------------------------------------|
|------------------------------------------|
|------------------------------------------|


  PM------------------------------------------------------------------|
  S  S S S S S  S  S S S S S S S S S   S  S S S S S S S S S S S S S S S
|------------------------------------|----------------------------------|
|------------------------------------|----------------------------------|
|------------------------------------|----------------------------------|
|--------------------7-7-7-7-7-7-7-7-|------------------7-7-7-7-7-7-7-7-|
|-5--5-5-5-5-5--5--5-----------------|-8--8-8-8-8-8-8-8-----------------|
|------------------------------------|----------------------------------|
|
| PM------------------------------------------------------------------|
| S  S S S S S  S  S S S S S S S S S   S  S S S S S S S S S S S S S S S
|------------------------------------|----------------------------------|
|------------------------------------|----------------------------------|
|------------------------------------|----------------------------------|
|------------------------------------|----------------------------------|
|--------------------5-5-5-5-5-5-5-5-|-5--5-5-5-5-5-5-5-5-5-5-5-5-5-5-5-|
|-3--3-3-3-3-3--3--3-----------------|----------------------------------|
|
|                                      ~~
| Q.            Q.           Q         H.                       Q
|--------------10--------------------|----------------------------------|
|-8--------------------------8-------|-7------------------------7-------|
|------------------------------------|----------------------------------|
|------------------------------------|----------------------------------|
|------------------------------------|----------------------------------|
|------------------------------------|----------------------------------|


    PM--------------------------------------
    S     S S S S S S S   S  S S S S S S S
|------------------------------------------|
|------------------------------------------|
|------------------------------------------|
|-------------------------6--6-6-6-6-6-6-6-|
|---7-----7-7-7-7-7-7-7--------------------|
|------------------------------------------|
|
|   PM--------------------------------------
|   S     S S S S S S S   S  S S S S S S S
|------------------------------------------|
|------------------------------------------|
|------------------------------------------|
|------------------------------------------|
|-------------------------4--4-4-4-4-4-4-4-|
|---5-----5-5-5-5-5-5-5--------------------|
|
|   H                    +H
|------------------------------------------|
|-[11]b12r==============(11)---------------|
|------------------------------------------|
|------------------------------------------|
|------------------------------------------|
|------------------------------------------|


 ----------------------|
   S S S    S S S    S S  Q    Q
|------------------------------------|
|------------------------------------|
|------------------------------------|
|-------------------------9----6-----|
|--8-8-8----8-8-8----8-8--7----4-----|
|------------------------------------|
|
|----------------------|
|  S S S    S S S    S S  Q    Q
|------------------------------------|
|------------------------------------|
|------------------------------------|
|------------------------------------|
|-------------------------7----4-----|
|--6-6-6----6-6-6----6-6--5----2-----|
|
|  |--------------3---------------|
|  Q      Q        Q      Q  Q    Q
|-14---------------------------------|
|--------16-------15-----12----------|
|---------------------------13---12--|
|------------------------------------|
|------------------------------------|
|------------------------------------|


  Gtrs I, II
   W           +W           +W            +H     H
|-----------|-------------|------------|--------------|
|-----------|-------------|------------|--------------|
|-----------|-------------|------------|--------------|
|--2--------|--(2)--------|-(2)--------|--(2)----5----|
|--2--------|--(2)--------|-(2)--------|--(2)----5----|
|--0--------|--(0)--------|-(0)--------|--(0)----3----|
|
| Gtr III
|  W           +W            W             W
|-14--------|-(14)--------|-10---------|-/13----------|
|-----------|-------------|------------|--------------|
|-----------|-------------|------------|--------------|
|-----------|-------------|------------|--------------|
|-----------|-------------|------------|--------------|
|-----------|-------------|------------|--------------|


  W          +W              +H               H
|----------|---------------|------------------------|
|----------|---------------|------------------------|
|----------|---------------|------------------------|
|-2--------|-(2)-----------|-(2)--------------5-----|
|-2--------|-(2)-----------|-(2)--------------5-----|
|-0--------|-(0)-----------|-(0)--------------3-----|
|
|             \0.25           \0.5/   \0.5/   /
| W          +W               Q      +Q      +H
|----------|---------------|------------------------|
|-0--------|-(0)-----------|------------------------|
|----------|---------------|------------------------|
|----------|---------------|------------------------|
|----------|---------------|--2------(2)-----(2)----|
|----------|---------------|--0------(0)-----(0)----|


  Q=160
  Gtr I
  H     H       Q   H     Q    H     H       Q   H     Q
|------------|---------------|------------|---------------|
|------------|---------------|------------|---------------|
|------------|---------------|------------|---------------|
|------------|---------------|------------|---------------|
|-2----------|--1------------|-2----------|--1------------|
|-------3----|------2-----3--|-------3----|------2-----3--|
|
| Gtr II
| Q  Q  H      +Q   Q  H       Q  Q  H      +Q   Q  H
|------------|---------------|------------|---------------|
|------------|---------------|------------|---------------|
|------------|---------------|------------|---------------|
|------------|---------------|------------|---------------|
|-2--5--1----|-(1)--5--4-----|-2--5--1----|-(1)--5--4-----|
|------------|---------------|------------|---------------|


  Gtr I
  H     H       Q   H     Q    H     H       Q   H       Q
|------------|---------------|------------|-----------------|
|------------|---------------|------------|-----------------|
|------------|---------------|------------|-----------------|
|------------|---------------|------------|-----------------|
|-2----------|--1------------|-2----------|--1--------------|
|-------3----|------2-----3--|-------3----|------2-------3--|
|
| Gtr II
| Q  Q  H      +Q   Q  H       Q  Q  H      +Q   Q   H
|------------|---------------|------------|-----------------|
|------------|---------------|------------|-----------------|
|------------|---------------|------------|-----------------|
|------------|---------------|------------|-----------------|
|-2--5--1----|-(1)--5--4-----|-2--5--1----|-(1)--5--[4]-----|
|------------|---------------|------------|-----------------|


    Gtr I
                               ~
    E E E E E E E E    E E E E Q   Q
||------------------|------------------|
||o-------------9---|-10---6---7-------|
||----------7-6---6-|----6---6---------|
||--4-6-7-6---------|------------------|
||o-----------------|------------------|
||------------------|------------------|
|
|   Gtr II
|   H       H          Q   Q   E E E E
||------------------|------------------|
||o-----------------|------------------|
||------------------|------------------|
||--4-------8-------|--7---3---4-------|
||o-4-------8-------|--7---3---4-3-3-3-|
||--2-------6-------|--5---1---2-1-1-1-|


                   1.              2.
  E E E E E E E E   Q  Q  Q  Q      Q  Q  Q  Q
|-----------------|--------------||---------------|
|-------------9---|-------------o||---------------|
|---------7-6---6-|--------------||---------------|
|-4-6-7-6---------|--------------||---------------|
|-----------------|-7--3--4--3--o||---------------|
|-----------------|--------------||-5--1--2--1----|
|
| H       H         Q  Q  Q  Q      Q  Q  Q  Q
|-----------------|--------------||---------------|
|-----------------|-------------o||---------------|
|-----------------|--------------||---------------|
|-4-------8-------|-7--3--4--3---||-7--3--4--3----|
|-4-------8-------|-7--3--4--3--o||-7--3--4--3----|
|-2-------6-------|-5--1--2--1---||-5--1--2--1----|


  Gtr I
  H     H       Q   H     Q    H     H       Q   H      Q
|------------|---------------|------------|----------------|
|------------|---------------|------------|----------------|
|------------|---------------|------------|----------------|
|------------|---------------|------------|----------------|
|-2----------|--1------------|-2----------|--1-------------|
|-------3----|------2-----3--|-------3----|------2------3--|
|
| Gtr II
| Q  Q  H      +Q   Q  H       Q  Q  H      +Q   Q  Q   Q
|------------|---------------|------------|----------------|
|------------|---------------|------------|----------------|
|------------|---------------|------------|----------------|
|------------|---------------|------------|------------/7--|
|-2--5--1----|-(1)--5--4-----|-2--5--1----|-(1)--5--4------|
|------------|---------------|------------|----------------|


  Gtr I
  H      H       Q    H      Q    H      H       Q    H      Q
|-------------|-----------------|-------------|-----------------|
|-------------|-----------------|-------------|-----------------|
|-------------|-----------------|-------------|-----------------|
|-------------|-----------------|-------------|-----------------|
|-2-----------|--1--------------|-2-----------|--1--------------|
|--------3----|-------2------3--|--------3----|-------2------3--|
|
| Gtr II
| Q   Q  H      +Q    Q   H       Q   Q  H      +Q    Q   H
|-------------|-----------------|-------------|-----------------|
|-------------|-----------------|-------------|-----------------|
|-------------|-----------------|-------------|-----------------|
|-9--12--8----|-(8)--12--11-----|-9--12--8----|-(8)--12--11-----|
|-------------|-----------------|-------------|-----------------|
|-------------|-----------------|-------------|-----------------|


    Q=180
    Gtrs I, II
    PM----|     PM--------|   PM  PM    PM----|     PM--------|   PM  PM
    E E E E E E E E   E E E E E E E E   E E E E E E E E   E E E E E E E E
||------------------|-----------------|-----------------|------------------|
||o-----------------|-----------------|-----------------|------------------|
||------------------|-----------------|-----------------|------------------|
||------------------|-----------------|-----------------|------------------|
||o---------5-4-----|-------3---4---3-|---------5-4-----|-------3---4---3--|
||--2-4-5-4-----2-4-|-4-2-1---1---1---|-2-4-5-4-----2-4-|-4-2-1---1---1----|


  Gtr I
  PM----|     PM--------|   PM  PM    PM----|     PM|
  E E E E E E E E   E E E E E E E E   E E E E E E E E   Q  Q  Q  Q   4x
|-----------------|-----------------|-----------------|--------------||
|-----------------|-----------------|-----------------|-------------o||
|-----------------|-----------------|-----------------|--------------||
|-----------------|-----------------|-----------------|--------------||
|---------5-4-----|-------3---4---3-|---------5-4-----|-7--3--4--3--o||
|-2-4-5-4-----2-4-|-4-2-1---1---1---|-2-4-5-4-----2-4-|-5--1--2--1---||
|
| Gtr II
| PM----|     PM--------|   PM  PM    PM----|     PM|
| E E E E E E E E   E E E E E E E E   E E E E E E E E   Q  Q  Q  Q   4x
|-----------------|-----------------|-----------------|--------------||
|-----------------|-----------------|-----------------|-------------o||
|-----------------|-----------------|-----------------|--------------||
|---------7-6-----|-------5---6---5-|---------7-6-----|-9--5--6--5---||
|-4-6-7-6-----4-6-|-6-4-3---3---3---|-4-6-7-6-----4-6-|-7--3--4--3--o||
|-----------------|-----------------|-----------------|--------------||


    Gtrs I, II
    PM----------------------------|         PM|
    S S S S S S S S S S S S S S S S   S S E E E S S E E E  4x W
||----------------------------------|----------------------||------*|
||o---------------------------------|---------------------o||------*|
||----------------------------------|----------------------||------*|
||----------------------------------|----------------------||------*|
||o---------------------------------|-3-3-3-3-3-3-3-3-4-3-o||------*|
||--5-5-5-5-5-5-5-5-2-2-2-2-2-2-2-2-|-1-1-1-1-1-1-1-1-2-1--||------*|

End.

  Visit MetalTabs.com for more metal tablature

bottom separator

Contact Us | Privacy Policy | Disclaimer | Legal Notice
Copyright © 2001-2014 MetalTabs.com. All Rights Reserved.