top separator

Home

Forum

What's New

Submit a Tab

FAQ

Links

Contact Us

Link to Us

MetalTabs.com logo

Bands

0-9

A

B

C

D

E

F

G

H

I

J

K

L

M

N

O

P

Q

R

S

T

U

V

W

X

Y

Z

Search

What

Where
 

Gorguts - "Stiff and Cold" Guitar Tab

Plain Text Version
More Gorguts Tabs

Hits: 4647
Rated: 3.60 out of 5 (5 votes)
Updated: 2005-03-20 14:47:42

 

By:

Cloaca

sendpm.gif

email.gif

Important note
This tab is available online because we obtained explicit permission from Gorguts or their label.


#----------------------------------PLEASE NOTE---------------------------------#
#This file is the author's own work and represents their interpretation of the #
#song. You may only use this file for private study, scholarship, or research. #
#Unless specified otherwise, this is NOT an official tab from the band members.#
#------------------------------------------------------------------------------#

  Visit MetalTabs.com for more metal tablature
  
Gorguts - 'Stiff And Cold'
Considered Dead (1991)
Roadrunner Records

Tabbed by Tim Snowsill (Tim_Snowsill@hotmail.com)
10/03/05

________________________________________________________________________________
Tab Rhythm is hardly perfect so listen to CD. Any comments or corrections can be
e-mailed to above address.

________________________________________________________________________________
Tuning C# F# B E G# C#

Gtr I - Luc Lemay
Gtr II - Sylvain Marcoux
Gtr III - Lead Guitar

  Q=200
 4/4
  Gtr I
  PM                                                  PM
  Q       H               Q         +H                Q       Q
|---------------------------------|------------------------------------|
|---------------------------------|------------------------------------|
|---------------------------------|------------------------------------|
|-------------------------2-------|-(2)--------------------------------|
|-2-----------------------2-------|-(2)---------------2----------------|
|-0-----------------------0-------|-(0)---------------0----------------|
|
| Gtr II
| PM----------------------------------------------------------------|
| S S S S S S S S S S S S S S S S    S  S S S S S S S S S S S S S S S
|---------------------------------|------------------------------------|
|---------------------------------|------------------------------------|
|---------------------------------|------------------------------------|
|---------------------------------|------------------------------------|
|-------------------------6-6-6-6-|--5--5-5-5-8-8-8-8------------------|
|-0-0-0-0-5-5-5-5-7-7-7-7---------|-------------------5-5-5-5-4-4-4-4--|


  PM--------------------------------------------------------------|
  Q       Q       Q       S S S S   S S S S S S S S S S S S S S S S
|---------------------------------|---------------------------------|
|---------------------------------|---------------------------------|
|---------------------------------|---------------------------------|
|---------------------------------|---------------------------------|
|-2-------2-------2-------6-6-6-6-|-5-5-5-5-8-8-8-8-----------------|
|-0-------0-------0---------------|-----------------5-5-5-5-4-4-4-4-|
|
| PM--------------------------------------------------------------|
| S S S S S S S S S S S S S S S S   S S S S S S S S S S S S S S S S
|---------------------------------|---------------------------------|
|---------------------------------|---------------------------------|
|---------------------------------|---------------------------------|
|---------------------------------|---------------------------------|
|-------------------------6-6-6-6-|-5-5-5-5-8-8-8-8-----------------|
|-0-0-0-0-5-5-5-5-7-7-7-7---------|-----------------5-5-5-5-4-4-4-4-|


  Gtrs I, II
  PM--------------------------------------------------------------|
  S S S S S S S S S S S S S S S S   S S S S S S S S S S S S S S S S
|---------------------------------|---------------------------------|
|---------------------------------|---------------------------------|
|---------------------------------|---------------------------------|
|---------------------------------|---------------------------------|
|-------------------------6-6-6-6-|-5-5-5-5-8-8-8-8-----------------|
|-0-0-0-0-5-5-5-5-7-7-7-7---------|-----------------5-5-5-5-4-4-4-4-|


  PM------------------------------------------------|
  S S S S S S S S S S S S S S S S   S S S S S S S S E E Q
|---------------------------------|------------------------|
|---------------------------------|------------------------|
|---------------------------------|------------------------|
|---------------------------------|------------------------|
|-------------------------6-6-6-6-|-5-5-5-5-8-8-8-8-3---3--|
|-0-0-0-0-5-5-5-5-7-7-7-7---------|-----------------1---1--|


  PM--------------------------------------------------------------|
  S S S S S S S S S S S S S S S S   S S S S S S S S S S S S S S S S
|---------------------------------|---------------------------------|
|---------------------------------|---------------------------------|
|---------------------------------|---------------------------------|
|---------------------------------|---------------------------------|
|-------------------------6-6-6-6-|-5-5-5-5-8-8-8-8-----------------|
|-0-0-0-0-5-5-5-5-7-7-7-7---------|-----------------5-5-5-5-4-4-4-4-|


  PM--------------------------------------|
  S S S S S S S S S S S S S S S S   S S S S Q   Q  Q
|---------------------------------|--------------------|
|---------------------------------|--------------------|
|---------------------------------|--------------------|
|---------------------------------|--------------------|
|-------------------------6-6-6-6-|-5-5-5-5-7\--3------|
|-0-0-0-0-5-5-5-5-7-7-7-7---------|---------5\--1------|


    Q=190
    |----3----|                      |----3----|
    E E E E E E H      H     H       E E E E E E H      H     H
||-------------------|-------------|------------------|-------------|
||o------------------|-------------|------------------|-------------|
||-------------------|-------------|------------------|-------------|
||-------------------|------[6]----|------------------|------[6]----|
||o-------------2----|-4-----------|-------------2----|-4-----------|
||--0-0-0-0-0-0-2----|-2-----------|-0-0-0-0-0-0-2----|-2-----------|


  |----3----|                      |----3----|             |-3-|
  E E E E E E H      H     H       E E E E E E H      H    q q q
|------------------|-------------|------------------|--------------||
|------------------|-------------|------------------|-------------o||
|------------------|-------------|------------------|--------------||
|------------------|------[6]----|------------------|--------------||
|-------------2----|-4-----------|-------------2----|-4----3-4-3--o||
|-0-0-0-0-0-0-2----|-2-----------|-0-0-0-0-0-0-2----|-2----1-2-1---||


  Q=160
              PM                         PM
  H.      +E  E   W          H.      +E  E   W
|---------------|----------|---------------|------|
|---------------|----------|---------------|------|
|---------------|----------|---------------|------|
|-2-------(2)-2-|-3--------|-2-------(2)-2-|------|
|-2-------(2)-2-|-1--------|-2-------(2)-2-|-3----|
|-0-------(0)-0-|-1--------|-0-------(0)-0-|-1----|


              PM                         PM
  H.      +E  E   W          H.      +E  E   Q  H.
|---------------|----------|---------------|----------|
|---------------|----------|---------------|----------|
|---------------|----------|---------------|----------|
|-2-------(2)-2-|-3--------|-2-------(2)-2-|-3--------|
|-2-------(2)-2-|-1--------|-2-------(2)-2-|-3--------|
|-0-------(0)-0-|-1--------|-0-------(0)-0-|-1--------|


    Gtr I
                PM
    H.      +E  E   H    Q  Q    H    H      H    Q  Q
||----------------|------------|-----------|--------------||
||o---------------|------------|-----------|-------------o||
||----------------|------------|-----------|--------------||
||--2-------(2)-2-|-3----3-----|-2----5----|--------------||
||o-2-------(2)-2-|-1-------3--|-2----5----|-3----3------o||
||--0-------(0)-0-|-1----------|-0----3----|-1-------1----||
|
|   Gtr II
|               PM
|   H.      +E  E   W            H    H      W
||----------------|------------|-----------|--------------||
||o---------------|------------|-----------|-------------o||
||----------------|------------|-----------|--------------||
||--2-------(2)-2-|-3----------|-2----5----|--------------||
||o-2-------(2)-2-|-1----------|-2----5----|-3-----------o||
||--0-------(0)-0-|-1----------|-0----3----|-1------------||


                PM       PM----|                    PM----|
    H.      +E  E   H    E E E E   H    H      H    E E E E
||----------------|--------------|-----------|----------------||
||o---------------|--------------|-----------|---------------o||
||----------------|--------------|-----------|----------------||
||--2-------(2)-2-|-3----3-3-----|-2----5----|----------------||
||o-2-------(2)-2-|-1--------3-3-|-2----5----|-3----3-3------o||
||--0-------(0)-0-|-1------------|-0----3----|-1--------1-1---||
|
|               PM       PM----|                    PM----|
|   H.      +E  E   H    E E E E   H    H      H    E E E E
||----------------|--------------|-----------|----------------||
||o---------------|--------------|-----------|---------------o||
||----------------|--------------|-----------|----------------||
||--2-------(2)-2-|-3----3-3-----|-2----5----|----------------||
||o-2-------(2)-2-|-1--------3-3-|-2----5----|-3----3-3------o||
||--0-------(0)-0-|-1------------|-0----3----|-1--------1-1---||


  Q=190
                                   PM--------|
                                   |----3----|
  W                  W             E E E E E E H      H     H
|------------------|-------------|------------------|-------------|
|------------------|-------------|------------------|-------------|
|------------------|-------------|------------------|-------------|
|------------------|-------------|------------------|------[6]----|
|------------------|-------------|-------------2----|-4-----------|
|------------------|-------------|-0-0-0-0-0-0-2----|-2-----------|
|
| PM--------|                      PM--------|
| |----3----|                      |----3----|
| E E E E E E H      H     H       E E E E E E H      H     H
|------------------|-------------|------------------|-------------|
|------------------|-------------|------------------|-------------|
|------------------|-------------|------------------|-------------|
|------------------|------[6]----|------------------|------[6]----|
|-------------2----|-4-----------|-------------2----|-4-----------|
|-0-0-0-0-0-0-2----|-2-----------|-0-0-0-0-0-0-2----|-2-----------|


  Gtrs I, II
  PM--------|                      PM--------|
  |----3----|                      |----3----|             |-3-|
  E E E E E E H      H     H       E E E E E E H      H    q q q
|------------------|-------------|------------------|-------------|
|------------------|-------------|------------------|-------------|
|------------------|-------------|------------------|-------------|
|------------------|------[6]----|------------------|-------------|
|-------------2----|-4-----------|-------------2----|-4----3-4-3--|
|-0-0-0-0-0-0-2----|-2-----------|-0-0-0-0-0-0-2----|-2----1-2-1--|


  PM--------|                      PM--------|
  |----3----|                      |----3----|
  E E E E E E H      H     H       E E E E E E H      H     H
|------------------|-------------|------------------|-------------|
|------------------|-------------|------------------|-------------|
|------------------|-------------|------------------|-------------|
|------------------|------[6]----|------------------|------[6]----|
|-------------2----|-4-----------|-------------2----|-4-----------|
|-0-0-0-0-0-0-2----|-2-----------|-0-0-0-0-0-0-2----|-2-----------|


  PM--------|                      PM--------|
  |----3----|                      |----3----|
  E E E E E E H      H     H       E E E E E E H      H    H
|------------------|-------------|------------------|-----------|
|------------------|-------------|------------------|-----------|
|------------------|-------------|------------------|-----------|
|------------------|------[6]----|------------------|-----------|
|-------------2----|-4-----------|-------------2----|-4----1----|
|-0-0-0-0-0-0-2----|-2-----------|-0-0-0-0-0-0-2----|-2----1----|


    Q=200
    PM--------------------------------------------------------------|
    S S S S S S S S S S S S S S S S   S S S S S S S S S S S S S S S S
||----------------------------------|----------------------------------|
||o---------------------------------|----------------------------------|
||----------------------------------|----------------------------------|
||----------------------------------|----------------------------------|
||o---------------------------------|-6-6-6-6-6-6-6-6-6-6-6-6-6-6-6-6--|
||--0-0-0-0-0-0-0-0-0-0-0-0-0-0-0-0-|----------------------------------|


  PM--------------------------------------------------------------|
  S S S S S S S S S S S S S S S S   S S S S S S S S S S S S S S S S
|---------------------------------|----------------------------------||
|---------------------------------|---------------------------------o||
|---------------------------------|----------------------------------||
|---------------------------------|----------------------------------||
|---------------------------------|-3-3-3-3-3-3-3-3-3-3-3-3-3-3-3-3-o||
|-0-0-0-0-0-0-0-0-0-0-0-0-0-0-0-0-|----------------------------------||


  Q=160
  W          H    Q  Q    W          H    Q  Q
|----------|------------|----------|------------|
|----------|------------|----------|------------|
|----------|------------|----------|------------|
|-2--------|-8----------|-2--------|-3----------|
|-2--------|-6----6-----|-2--------|-3----3-----|
|-0--------|-6-------6--|-0--------|-1-------4--|


  W          H    Q  Q    H    Q.   E   H    Q  Q
|----------|------------|-------------|------------|
|----------|------------|-------------|------------|
|----------|------------|-------------|------------|
|-2--------|-8----------|-2----5------|-3----------|
|-2--------|-6----6-----|-2----5------|-3----3-----|
|-0--------|-6-------6--|-0----3----0-|-1-------4--|


    PM--------------------------------------------------------------|
    S S S S S S S S S S S S S S S S   S S S S S S S S S S S S S S S S
||----------------------------------|----------------------------------|
||o---------------------------------|----------------------------------|
||----------------------------------|----------------------------------|
||------------------5-5-5-5-5-5-----|-----------------3-3-3-3----------|
||o---------------------------------|-1-1-1-1-1-1-1-1---------4-4-4-4--|
||--0-0-0-0-0-0-0-0-------------0-0-|----------------------------------|


  PM----------------------------------------------|
  S S S S S S S S S S S S S S S S   S S S S S S S S S S S S E E
|---------------------------------|-------------------------------||
|---------------------------------|------------------------------o||
|---------------------------------|-------------------------------||
|---------------------------------|-------------------------------||
|-2-2-2-2-2-2-2-2-----------------|-----------------3-3-3-3------o||
|-----------------3-3-3-3-3-3-3-3-|-1-1-1-1-1-1-1-1---------1-1---||


    Q=180
    PM------------------------------------------------------------------|
    E E E E E E E E   E E E E E E E E   E E E E E E E E   E E E E E E E E   3x
||------------------|-----------------|-----------------|-------------------||
||o-----------------|-----------------|-----------------|------------------o||
||------------------|-----------------|-----------------|-------------------||
||------------------|-7-8-7-8-4-5-4-5-|-----------------|-7-8-7-8-4-5-4-5---||
||o-2-2-2-2-3-4-3-4-|-5-6-5-6-2-3-2-3-|-2-2-2-2-3-4-3-4-|-5-6-5-6-2-3-2-3--o||
||--0-0-0-0-1-2-1-2-|-----------------|-0-0-0-0-1-2-1-2-|-------------------||


  Q=160
              PM                         PM
  H.      +E  E   W          H.      +E  E   W
|---------------|----------|---------------|------|
|---------------|----------|---------------|------|
|---------------|----------|---------------|------|
|-2-------(2)-2-|-3--------|-2-------(2)-2-|-3----|
|-2-------(2)-2-|-1--------|-2-------(2)-2-|-3----|
|-0-------(0)-0-|-1--------|-0-------(0)-0-|-1----|


  Gtrs I, II
              PM                         PM
  H.      +E  E   W          H.      +E  E   W
|---------------|----------|---------------|------|
|---------------|----------|---------------|------|
|---------------|----------|---------------|------|
|-2-------(2)-2-|-3--------|-2-------(2)-2-|-3----|
|-2-------(2)-2-|-1--------|-2-------(2)-2-|-3----|
|-0-------(0)-0-|-1--------|-0-------(0)-0-|-1----|
|
| Gtr III - SOLO
| W               W          H.      +E  E   W
|---------------|----------|---------------|------|
|---------------|----------|---------------|------|
|---------------|----------|---------------|------|
|---------------|----------|---------------|------|
|---------------|----------|---------------|------|
|---------------|----------|-7-------(7)-7-|-8----|


                      PM                                    PM
  H.             +E   E   W                H.           +E  E    W
|-----------------------|----------------|--------------------|-------------|
|-----------------------|----------------|--------------------|-------------|
|-----------------------|----------------|--------------------|-------------|
|-2--------------(2)--2-|-3--------------|-2------------(2)-2-|--3----------|
|-2--------------(2)--2-|-1--------------|-2------------(2)-2-|--3----------|
|-0--------------(0)--0-|-1--------------|-0------------(0)-0-|--1----------|
|
|
| PM----------|
| E  E  E E E  E  E   E   E S S E E H      E  E E +H        E    E E  H.
|-----------------------|----------------|--------------------|-------------|
|-----------------------|---7h8p7--------|-7--8-7-(7)-------8-|-11-8-[7]----|
|-----------------9-----|-8-------9-8----|--------------------|-------------|
|---------7-9-10-----10-|----------------|--------------------|-------------|
|-7--9-10---------------|----------------|--------------------|-------------|
|-----------------------|----------------|--------------------|-------------|


                                        PM
   H.                             +E    E
|-------------------------------------------|
|-------------------------------------------|
|-------------------------------------------|
|--2------------------------------(2)---2---|
|--2------------------------------(2)---2---|
|--0------------------------------(0)---0---|
|
|  T      T    T    T    T    T    T    T
|  S T T  S S  S S  S S  S S  S S  S S  S S
|-12p7h8-12p7-12p7-12p7-12p7-12p7-12p7-12p8-|
|-------------------------------------------|
|-------------------------------------------|
|-------------------------------------------|
|-------------------------------------------|
|-------------------------------------------|


                                                           PM
   W                                         H.       +E   E    W
|-----------------------------------------|------------------|---------------|
|-----------------------------------------|------------------|---------------|
|-----------------------------------------|------------------|---------------|
|--3--------------------------------------|--2--------(2)--2-|--3------------|
|--1--------------------------------------|--2--------(2)--2-|--3------------|
|--1--------------------------------------|--0--------(0)--0-|--1------------|
|
|  T    T    T    T    T    T    T    T
|  S S  S S  S S  S S  S S  S S  S S  S S    H.       +E   E    E  E  +H.
|-13p8-13p8-13p8-13p8-13p8-13p8-13p8-13p8-|------------------|-12------------|
|-----------------------------------------|-12-------(12)-12-|----13-(13)----|
|-----------------------------------------|------------------|---------------|
|-----------------------------------------|------------------|---------------|
|-----------------------------------------|------------------|---------------|
|-----------------------------------------|------------------|---------------|


  Q=180
   PM---------------------------------------------------------------------|
   E E E E   E  E E E   E E E E E E E E   E E E E E E E E   E E E E E E E E
|---------------------|-----------------|-----------------|-----------------|
|---------------------|-----------------|-----------------|-----------------|
|---------------------|-----------------|-----------------|-----------------|
|---------------------|-7-8-7-8-4-5-4-5-|-----------------|-7-8-7-8-4-5-4-5-|
|--2-2-2-2---3--4-3-4-|-5-6-5-6-2-3-2-3-|-2-2-2-2-3-4-3-4-|-5-6-5-6-2-3-2-3-|
|--0-0-0-0---1--2-1-2-|-----------------|-0-0-0-0-1-2-1-2-|-----------------|
|
|            >
|  H        +H          W                 W                 W
|-19-------(19)-------|-----------------|-----------------|-----------------|
|---------------------|-----------------|-----------------|-----------------|
|---------------------|-----------------|-----------------|-----------------|
|---------------------|-----------------|-----------------|-----------------|
|---------------------|-----------------|-----------------|-----------------|
|---------------------|-----------------|-----------------|-----------------|


  Gtrs I, II
  PM------------------------------------------------------------------|
  E E E E E E E E   E E E E E E E E   E E E E E E E E   E E E E E E E E
|-----------------|-----------------|-----------------|-----------------|
|-----------------|-----------------|-----------------|-----------------|
|-----------------|-----------------|-----------------|-----------------|
|-----------------|-7-8-7-8-4-5-4-5-|-----------------|-7-8-7-8-4-5-4-5-|
|-2-2-2-2-3-4-3-4-|-5-6-5-6-2-3-2-3-|-2-2-2-2-3-4-3-4-|-5-6-5-6-2-3-2-3-|
|-0-0-0-0-1-2-1-2-|-----------------|-0-0-0-0-1-2-1-2-|-----------------|


    PM------------------------------|
    E E E E E E E E   E E E E E E E E  4x
||------------------|------------------||
||o-----------------|-----------------o||
||------------------|------------------||
||------------------|------------------||
||o-------------6-6-|-5-5-8-8---------o||
||--0-0-5-5-7-7-----|---------5-5-4-4--||


  Q=190
  Gtr I
                                   PM--------|
                                   |----3----|
  W                  W             E E E E E E H      H     H
|------------------|-------------|------------------|-------------|
|------------------|-------------|------------------|-------------|
|------------------|-------------|------------------|-------------|
|------------------|-------------|------------------|-4----[6]----|
|------------------|-------------|-------------2----|-4-----------|
|------------------|-------------|-0-0-0-0-0-0-2----|-------------|
|
| Gtr II
| PM--------|                      PM--------|
| |----3----|                      |----3----|
| E E E E E E H      H     H       E E E E E E H      H     H
|------------------|-------------|------------------|-------------|
|------------------|-------------|------------------|-------------|
|------------------|-------------|------------------|-------------|
|------------------|-4----[6]----|------------------|-4----[6]----|
|-------------2----|-4-----------|-------------2----|-4-----------|
|-0-0-0-0-0-0-2----|-------------|-0-0-0-0-0-0-2----|-------------|


  Gtrs I, II
  PM--------|                      PM--------|
  |----3----|                      |----3----|             |-3-|
  E E E E E E H      H     H       E E E E E E H      H    q q q
|------------------|-------------|------------------|-------------|
|------------------|-------------|------------------|-------------|
|------------------|-------------|------------------|-------------|
|------------------|-4----[6]----|------------------|-4-----------|
|-------------2----|-4-----------|-------------2----|-4----3-4-3--|
|-0-0-0-0-0-0-2----|-------------|-0-0-0-0-0-0-2----|------1-2-1--|


  PM--------|                      PM--------|
  |----3----|                      |----3----|
  E E E E E E H      H     H       E E E E E E H      H     H
|------------------|-------------|------------------|-------------|
|------------------|-------------|------------------|-------------|
|------------------|-------------|------------------|-------------|
|------------------|-4----[6]----|------------------|-4----[6]----|
|-------------2----|-4-----------|-------------2----|-4-----------|
|-0-0-0-0-0-0-2----|-------------|-0-0-0-0-0-0-2----|-------------|


                                                     2/4
  PM--------|                      PM--------|
  |----3----|                      |----3----|
  E E E E E E H      H     H       E E E E E E H      H
|------------------|-------------|------------------|------|
|------------------|-------------|------------------|------|
|------------------|-------------|------------------|------|
|------------------|-4----[6]----|------------------|-4----|
|-------------2----|-4-----------|-------------2----|-4----|
|-0-0-0-0-0-0-2----|-------------|-0-0-0-0-0-0-2----|------|


    Q=200
   4/4
    PM--------------------------------------------------------------|
    S S S S S S S S S S S S S S S S   S S S S S S S S S S S S S S S S
||----------------------------------|---------------------------------|
||o---------------------------------|---------------------------------|
||----------------------------------|---------------------------------|
||----------------------------------|---------------------------------|
||o---------------------------------|-6-6-6-6-6-6-6-6-6-6-6-6-6-6-6-6-|
||--0-0-0-0-0-0-0-0-0-0-0-0-0-0-0-0-|---------------------------------|


  PM--------------------------------------------------------------|
  S S S S S S S S S S S S S S S S   S S S S S S S S S S S S S S S S
|---------------------------------|----------------------------------||
|---------------------------------|---------------------------------o||
|---------------------------------|----------------------------------||
|---------------------------------|----------------------------------||
|---------------------------------|-3-3-3-3-3-3-3-3-3-3-3-3-3-3-3-3-o||
|-0-0-0-0-0-0-0-0-0-0-0-0-0-0-0-0-|----------------------------------||


  Q=160
  W          H    Q  Q    W          H    Q  Q
|----------|------------|----------|------------|
|----------|------------|----------|------------|
|----------|------------|----------|------------|
|-2--------|-8----------|-2--------|-3----------|
|-2--------|-6----6-----|-2--------|-3----3-----|
|-0--------|-6-------6--|-0--------|-1-------4--|


  W          H    Q  Q    H    Q.   E   H    Q  Q
|----------|------------|-------------|------------|
|----------|------------|-------------|------------|
|----------|------------|-------------|------------|
|-2--------|-8----------|-2----5------|-3----------|
|-2--------|-6----6-----|-2----5------|-3----3-----|
|-0--------|-6-------6--|-0----3----0-|-1-------4--|


    PM--------------------------------------------------------------|
    S S S S S S S S S S S S S S S S   S S S S S S S S S S S S S S S S
||----------------------------------|----------------------------------|
||o---------------------------------|----------------------------------|
||----------------------------------|----------------------------------|
||------------------5-5-5-5-5-5-----|-----------------3-3-3-3----------|
||o---------------------------------|-1-1-1-1-1-1-1-1---------4-4-4-4--|
||--0-0-0-0-0-0-0-0-------------0-0-|----------------------------------|


  PM----------------------------------------------|
  S S S S S S S S S S S S S S S S   S S S S S S S S S S S S E E
|---------------------------------|-------------------------------||
|---------------------------------|------------------------------o||
|---------------------------------|-------------------------------||
|---------------------------------|-------------------------------||
|-2-2-2-2-2-2-2-2-----------------|-----------------3-3-3-3------o||
|-----------------3-3-3-3-3-3-3-3-|-1-1-1-1-1-1-1-1---------1-1---||


    Q=180
    PM---------------------------------
    E E E E E E E E   E E E E E E E E
||------------------|-----------------|
||o-----------------|-----------------|
||------------------|-----------------|
||------------------|-7-8-7-8-4-5-4-5-|
||o-2-2-2-2-3-4-3-4-|-5-6-5-6-2-3-2-3-|
||--0-0-0-0-1-2-1-2-|-----------------|


 ---------------------------------|
  E E E E E E E E   E E E E E E E E     W
|-----------------|------------------||------*|
|-----------------|-----------------o||------*|
|-----------------|------------------||------*|
|-----------------|-7-8-7-8-4-5-4-5--||------*|
|-2-2-2-2-3-4-3-4-|-5-6-5-6-2-3-2-3-o||------*|
|-0-0-0-0-1-2-1-2-|------------------||------*|


End.

  Visit MetalTabs.com for more metal tablature

bottom separator

Contact Us | Privacy Policy | Disclaimer | Legal Notice
Copyright © 2001-2014 MetalTabs.com. All Rights Reserved.