top separator

Home

Forum

What's New

Submit a Tab

FAQ

Links

Contact Us

Link to Us

MetalTabs.com logo

Bands

0-9

A

B

C

D

E

F

G

H

I

J

K

L

M

N

O

P

Q

R

S

T

U

V

W

X

Y

Z

Search

What

Where
 

Exhumed - "Decrepit Crescendo" Guitar Tab

Plain Text Version
More Exhumed Tabs

Hits: 4440
Rated: 4.50 out of 5 (2 votes)
Updated: 2005-03-20 14:44:26

 

By:

DanOfTheDead

sendpm.gif

email.gif

Important note
This tab is available online because we obtained explicit permission from Exhumed or their label.


#----------------------------------PLEASE NOTE---------------------------------#
#This file is the author's own work and represents their interpretation of the #
#song. You may only use this file for private study, scholarship, or research. #
#Unless specified otherwise, this is NOT an official tab from the band members.#
#------------------------------------------------------------------------------#

  Visit MetalTabs.com for more metal tablature
  
Band:  (Exhumed)
Album: (Slaughtercult)
Song:  (Decrepit Crescendo)

Copyright (c)  (Relapse Records) (2001)
Version 1.0 - (3/9/05)

Transcribed By: (DanOfTheDead & andrewc)
Email:          (eatabowlofpoop@aol.com)


.  - palm mute           /  - slide up to
\  - slide down to       ~  - vibrato
h  - hammer on           b  - Bend
p  - pull off            Suffixes for bend
t  - tap                 f  - full bend    h - half bend
ph - pinched harmonic    q  - quarter bend t - tap bend
*  - see comment         ^  - Hold bend    r release bend
x  - Stuccatto           ~  - vibrato bend
,  - slight palm mute    () - ghost note, sustained note
"  - tremolo note        <> - Trill

Tuning B E A D F* B

Riff 1
|-------------------------------------------------------------------|
|-------------------------------------------------------------------|
|-------------------------------------------------------------------|
|-9------9/10------9------9/10-8---9------9/10------9/10-9---8/9-8--|
|-9------7/8-------7------7/8--6---7------7/8-------7/8--7---6/7-6--|
|-7-0000-7/8--0000-7-0000-7/8--6---7-0000-7/8--0000-7/8--7---6/7-6--|

Riff 2
|-------------------------------------------------------------------|
|-------------------------------------------------------------------|
|-------------------------------------------------------------------|
|--------3------3/6-5/6-7\6-----------------------------------------|
|-3------1------1/4-3/4-5\4-6\5-------------------------------------|
|-1-0000---0000-------------4\3-------------------------------------|

Riff 3a
|-------------------------------------------------------------------|
|-------------------------------------------------------------------|
|-------------------------------------------------------------------|
|-------------------------------------------------------------------|
|-55------55------5/7-7/8-55------55-------5--4---------------------|
|---444444--444444----------444444--444444-3--2---------------------|

|-------------------------------------------------------------------|
|-------------------------------------------------------------------|
|-------------------------------------------------------------------|
|-------------------------------------------------------------------|
|-55------55------5/7-7/8-55------55-------5--4----4--3-------------|
|---444444--444444----------444444--444444-3--2----2--1-------------|

Riff 3b
|-------------------------------------------------------------------|
|-------------------------------------------------------------------|
|-------------------------------------------------------------------|
|-----------------3/5-5/6-------------------------------------------|
|-88------88--------------88------88-------5--4---------------------|
|---444444--444444----------444444--444444-3--2---------------------|

|-------------------------------------------------------------------|
|-------------------------------------------------------------------|
|-------------------------------------------------------------------|
|-----------------3/5-5/6-------------------------------------------|
|-88------88--------------88------88-------5--4----4--3-------------|
|---444444--444444----------444444--444444-3--2----2--1-------------|

Riff 4
|-------------------------------------------------------------------|
|-------------------------------------------------------------------|
|-------------------------------------------------------------------|
|-------------------------------------------------------------------|
|-----7---7-h8---11------7---7-h8---10------7---7-h8---11--10----10-|
|-0-0---0------0-----0-0---0------0-----0-0---0------0--------11----|
  . .   .      .     . .   .      .     . .   .      .        .
|-------------------------------------------------------------------|
|-------------------------------------------------------------------|
|-------------------------------------------------------------------|
|-------10-9--------------------------------------------------------|
|------------10-----------------------------------------------------|
|-11-10-------------------------------------------------------------|
  .  .

Riff 5                                           {Ending 1,2,3rd time}
|-------------------------------------------------------------------|
|-------------------------------------------------------------------|
|-------------------------------------------------------------------|
|-------------------------------------------------------------------|
|-----------------666666666666--------------------555555555555------|
|-3333333333333333------------33332222222222222222------------2222--|

{-Ending 4th time-}
|-------------------------------------------------------------------|
|-------------------------------------------------------------------|
|-------------------------------------------------------------------|
|-------------------------------------------------------------------|
|-------------------------------------------------------------------|
|-1111111111111111--------------------------------------------------|

Riff 6
|-------------------------------------------------------------------|
|-------------------------------------------------------------------|
|-------------------------------------------------------------------|
|-10101010101010101010101010101010----------------------------------|
|-8-8-8-8-8-8-8-8-8-8-8-8-8-8-8-8-----------------------------------|
|-8-8-8-8-8-8-8-8-8-8-8-8-8-8-8-8-----------------------------------|

Riff 7
|-------------------------------------------------------------------|
|-------------------------------------------------------------------|
|-------------------------------------------------------------------|
|-10---10---10---10---10---10---10---10-----------------------------|
|-8----8----8----8----8----8----8----8------------------------------|
|-8----8----8----8----8----8----8----8------------------------------|

Riff 8
|-------------------------------------------------------------------|
|-------------------------------------------------------------------|
|-------------------------------------------------------------------|
|-10----------------------------------------------------------------|
|-8-----------------------------------------------------------------|
|-8-----------------------------------------------------------------|

Riff 9
|-------------------------------------------------------------------|
|-------------------------------------------------------------------|
|-------------------------------------------------------------------|
|-9------9/10-8---9/10-9---9\---------------------------------------|
|-7------7/8--6---7/8--7---7\---------------------------------------|
|-7-0000-7/8--6---7/8--7---7\---------------------------------------|

Solo
|-17fb^~---10-12h14p12h14p12h14p12h14p12--24fb--17~~~--17h19-15h17--|
|-------------------------------------------------------------------|
|-------------------------------------------------------------------|
|-------------------------------------------------------------------|
|-------------------------------------------------------------------|
|-------------------------------------------------------------------|

|-14h15-12h14-10h12-8h10-7h8---------------10--10--10--10--10--12---|
|------------------------------5fb^~~--------p9--p9--p9--p9--p9--p12|
|-------------------------------------------------------------------|
|-------------------------------------------------------------------|
|-------------------------------------------------------------------|
|-------------------------------------------------------------------|

|-12---12---12---12----15fb--17~~~--|
|---p10--p12--p10--p12--------------|
|-----------------------------------|
|-----------------------------------| Use delay on the last note
|-----------------------------------|
|-----------------------------------|

Song Structure:
Riff 1
Riff 2 X4
Riff 3a
Riff 3a & Riff 3b
Riff 1 X2
Riff 2 X4
Riff 3a
Riff 3a & Riff 3b
Riff 1 X2
Riff 4 X4
Riff 5 X4 & Solo
Riff 1 X2
Riff 2 X4
Riff 3a
Riff 3a & Riff 3b
Riff 1 X2
Riff 6 X3
Riff 7
Riff 8
Riff 9
END

  Visit MetalTabs.com for more metal tablature

bottom separator

Contact Us | Privacy Policy | Disclaimer | Legal Notice
Copyright © 2001-2014 MetalTabs.com. All Rights Reserved.