top separator

Home

Forum

What's New

Submit a Tab

FAQ

Links

Contact Us

Link to Us

MuSpy.com

MetalTabs.com logo

Bands

0-9

A

B

C

D

E

F

G

H

I

J

K

L

M

N

O

P

Q

R

S

T

U

V

W

X

Y

Z

Search

What

Where
 

Dekapitator - "One Shot, One Kill" Guitar Tab

Plain Text Version
More Dekapitator Tabs

Hits: 4721
Rated: 4.20 out of 5 (5 votes)
Updated: 2005-05-07 09:33:32

 

By:

MetalThrashingMad

sendpm.gif

email.gif

Important note
This tab is available online because we obtained explicit permission from Dekapitator or their label.


#----------------------------------PLEASE NOTE---------------------------------#
#This file is the author's own work and represents their interpretation of the #
#song. You may only use this file for private study, scholarship, or research. #
#Unless specified otherwise, this is NOT an official tab from the band members.#
#------------------------------------------------------------------------------#

  Visit MetalTabs.com for more metal tablature
  
Band: Dekapitator
Album: We Will Destroy... You Will Obey!
Song: One Shot One Kill
Copyright (c) 1999 Dekapitator Metal
          (p) blackmetal.com recrods/cybertzara
Version 1.2 - 04-22-2005
Transcribed By: Steve - MetalThrashingMad
Email: Thrasher502@hotmail.com


Gtr I (D# G# C# F# A# D#) - 'Guitar 1'
Gtr II (D# G# C# F# A# D#) - 'Guitar 2'


    Q=215
   4/4
    Gtrs I, II
       PM------------|            PM----|
    Q  S S S S S S S S S S E   Q  S S S S  Q  Q
||---------------------------|-------------------|
||o--------------------------|-------------------|
||---------------------------|-------------------|
||---------------------------|-------------------|
||o-7------------------8p7p5-|-7----------10--8--|
||--5--5-5-5-5-5-5-5-5-------|-5--5-5-5-5--8--6--|


     PM------------|            PM----|
  Q  S S S S S S S S S S E   Q  S S S S Q  Q
|--------------------------|---------------------||
|--------------------------|--------------------o||
|--------------------------|---------------------||
|--------------------------|---------------------||
|-7------------------8p7p5-|-7----------8--5----o||
|-5--5-5-5-5-5-5-5-5-------|-5--5-5-5-5-6--3-----||


       PM----|               PM----|
    Q  S S S S S S E Q    Q  S S S S S S E Q
||----------------------|---------------------|
||o---------------------|---------------------|
||----------------------|---------------------|
||----------------------|---------------------|
||o-7----------8p7p5-8--|-7----------8p7p5-7--|
||--5--5-5-5-5----------|-5--5-5-5-5----------|


     PM----|            PM  PM|    PM|   PM
  Q  S S S S S S E Q    S S S S Q  S S S S Q
|---------------------|--------------------------||
|---------------------|-------------------------o||
|---------------------|--------------------------||
|---------------------|---------5----------5-----||
|-7----------8p7p5-8--|---------3----------3----o||
|-5--5-5-5-5----------|-3-3-3-3----3-3-3-3-------||


     PM----|              PM----|    PM----|
  Q  S S S S E. E. E   Q  S S S S Q  S S S S
|--------------------|-----------------------|
|--------------------|-----------------------|
|-4----------5--4--7-|-----------------------|
|-2--2-2-2-2-3--2--5-|-5----------7----------|
|--------------------|-3--3-3-3-3-5--5-5-5-5-|
|--------------------|-----------------------|


     PM----|              PM----|    PM----|
  Q  S S S S E. E. E   Q  S S S S Q  S S S S
|--------------------|-------------------------|
|--------------------|-------------------------|
|-4----------5--4--7-|-------------------------|
|-2--2-2-2-2-3--2--5-|-5----------5------------|
|--------------------|-3--3-3-3-3-3--3-3-3-3---|
|--------------------|-------------------------|


     PM----|              PM----|    PM----|      PM----|
  Q  S S S S E. E. E   Q  S S S S Q  S S S S   Q  S S S S E. E. E   H    H
|--------------------|-----------------------|--------------------|-----------|
|--------------------|-----------------------|--------------------|-----------|
|-4----------5--4--7-|-----------------------|-4----------5--4--7-|-----------|
|-2--2-2-2-2-3--2--5-|-5----------7----------|-2--2-2-2-2-3--2--5-|-5----3----|
|--------------------|-3--3-3-3-3-5--5-5-5-5-|--------------------|-3----1----|
|--------------------|-----------------------|--------------------|-----------|


    Gtrs I, II
       PM------------|            PM----|
    Q  S S S S S S S S S S E   Q  S S S S  Q  Q
||---------------------------|-------------------|
||o--------------------------|-------------------|
||---------------------------|-------------------|
||---------------------------|-------------------|
||o-7------------------8p7p5-|-7----------10--8--|
||--5--5-5-5-5-5-5-5-5-------|-5--5-5-5-5--8--6--|


     PM------------|            PM----|
  Q  S S S S S S S S S S E   Q  S S S S Q  Q
|--------------------------|--------------------||
|--------------------------|-------------------o||
|--------------------------|--------------------||
|--------------------------|--------------------||
|-7------------------8p7p5-|-7----------8--5---o||
|-5--5-5-5-5-5-5-5-5-------|-5--5-5-5-5-6--3----||


                            PM----|    PM----|      PM----|
  H    H      W          Q  S S S S Q  S S S S   Q  S S S S Q  Q
|-----------|----------|-----------------------|------------------|
|-----------|----------|-----------------------|------------------|
|-----------|----------|-----------------------|------------------|
|------5----|-3--------|------------5----------|-3----------3-----|
|-4----3----|-1--------|-4----------3--3-3-3-3-|-1--1-1-1-1-1--3--|
|-2---------|----------|-2--2-2-2-2------------|---------------1--|


     PM----|    PM----|      PM----|    PM----|
  Q  S S S S Q  S S S S   Q  S S S S Q  S S S S
|-----------------------|-----------------------|
|-----------------------|-----------------------|
|-----------------------|-----------------------|
|------------5----------|-3----------3----------|
|-4----------3--3-3-3-3-|-1--1-1-1-1-1--1-1-1-1-|
|-2--2-2-2-2------------|-----------------------|


     PM----|    PM--|
  Q  S S S S Q  S S S S   H    H
|-----------------------|-----------|
|-----------------------|-----------|
|-----------------------|-----------|
|------------5----------|-3---------|
|-4----------3--3-3-3-3-|-1----3----|
|-2--2-2-2-2------------|------1----|


    Gtrs I, II
       PM------------|            PM----|
    Q  S S S S S S S S S S E   Q  S S S S  Q  Q
||---------------------------|-------------------|
||o--------------------------|-------------------|
||---------------------------|-------------------|
||---------------------------|-------------------|
||o-7------------------8p7p5-|-7----------10--8--|
||--5--5-5-5-5-5-5-5-5-------|-5--5-5-5-5--8--6--|


     PM------------|            PM----|
  Q  S S S S S S S S S S E   Q  S S S S Q  Q
|--------------------------|--------------------||
|--------------------------|-------------------o||
|--------------------------|--------------------||
|--------------------------|--------------------||
|-7------------------8p7p5-|-7----------8--5---o||
|-5--5-5-5-5-5-5-5-5-------|-5--5-5-5-5-6--3----||


                            PM----|    PM----|      PM----|
  H    H      W          Q  S S S S Q  S S S S   Q  S S S S Q  Q
|-----------|----------|-----------------------|------------------|
|-----------|----------|-----------------------|------------------|
|-----------|----------|-----------------------|------------------|
|------5----|-3--------|------------5----------|-3----------3-----|
|-4----3----|-1--------|-4----------3--3-3-3-3-|-1--1-1-1-1-1--3--|
|-2---------|----------|-2--2-2-2-2------------|---------------1--|


     PM----|    PM----|      PM----|    PM----|
  Q  S S S S Q  S S S S   Q  S S S S Q  S S S S
|-----------------------|-----------------------|
|-----------------------|-----------------------|
|-----------------------|-----------------------|
|------------5----------|-3----------3----------|
|-4----------3--3-3-3-3-|-1--1-1-1-1-1--1-1-1-1-|
|-2--2-2-2-2------------|-----------------------|


     PM----|    PM--|
  Q  S S S S Q  S S S S   H    H
|-----------------------|-----------|
|-----------------------|-----------|
|-----------------------|-----------|
|------------5----------|-3---------|
|-4----------3--3-3-3-3-|-1----3----|
|-2--2-2-2-2------------|------1----|


    Gtrs I, II
       PM------------|            PM----|
    Q  S S S S S S S S S S E   Q  S S S S  Q  Q
||---------------------------|-------------------|
||o--------------------------|-------------------|
||---------------------------|-------------------|
||---------------------------|-------------------|
||o-7------------------8p7p5-|-7----------10--8--|
||--5--5-5-5-5-5-5-5-5-------|-5--5-5-5-5--8--6--|


     PM------------|            PM----|
  Q  S S S S S S S S S S E   Q  S S S S Q  Q
|--------------------------|--------------------||
|--------------------------|-------------------o||
|--------------------------|--------------------||
|--------------------------|--------------------||
|-7------------------8p7p5-|-7----------8--5---o||
|-5--5-5-5-5-5-5-5-5-------|-5--5-5-5-5-6--3----||


     PM----|              PM----|    PM----|
  Q  S S S S E. E. E   Q  S S S S Q  S S S S
|--------------------|-----------------------|
|--------------------|-----------------------|
|-4----------5--4--7-|-----------------------|
|-2--2-2-2-2-3--2--5-|-5----------7----------|
|--------------------|-3--3-3-3-3-5--5-5-5-5-|
|--------------------|-----------------------|


     PM----|              PM----|    PM----|
  Q  S S S S E. E. E   Q  S S S S Q  S S S S
|--------------------|-------------------------|
|--------------------|-------------------------|
|-4----------5--4--7-|-------------------------|
|-2--2-2-2-2-3--2--5-|-5----------5------------|
|--------------------|-3--3-3-3-3-3--3-3-3-3---|
|--------------------|-------------------------|


     PM----|              PM----|    PM----|      PM----|
  Q  S S S S E. E. E   Q  S S S S Q  S S S S   Q  S S S S E. E. E   H    H
|--------------------|-----------------------|--------------------|-----------|
|--------------------|-----------------------|--------------------|-----------|
|-4----------5--4--7-|-----------------------|-4----------5--4--7-|-----------|
|-2--2-2-2-2-3--2--5-|-5----------7----------|-2--2-2-2-2-3--2--5-|-5----3----|
|--------------------|-3--3-3-3-3-5--5-5-5-5-|--------------------|-3----1----|
|--------------------|-----------------------|--------------------|-----------|


                            PM----|    PM----|      PM----|
  H    H      W          Q  S S S S Q  S S S S   Q  S S S S Q  Q
|-----------|----------|-----------------------|------------------|
|-----------|----------|-----------------------|------------------|
|-----------|----------|-----------------------|------------------|
|------5----|-3--------|------------5----------|-3----------3-----|
|-4----3----|-1--------|-4----------3--3-3-3-3-|-1--1-1-1-1-1--3--|
|-2---------|----------|-2--2-2-2-2------------|---------------1--|


     PM----|    PM----|      PM----|    PM----|
  Q  S S S S Q  S S S S   Q  S S S S Q  S S S S
|-----------------------|-----------------------|
|-----------------------|-----------------------|
|-----------------------|-----------------------|
|------------5----------|-3----------3----------|
|-4----------3--3-3-3-3-|-1--1-1-1-1-1--1-1-1-1-|
|-2--2-2-2-2------------|-----------------------|


     PM----|    PM--|
  Q  S S S S Q  S S S S   H    H
|-----------------------|-----------|
|-----------------------|-----------|
|-----------------------|-----------|
|------------5----------|-3---------|
|-4----------3--3-3-3-3-|-1----3----|
|-2--2-2-2-2------------|------1----|


  Q=160                               Q=180
                                                        \2
    PM----------------------------------------------|
  E E E E E E E E   E E E E E E E E   E E E E E E E E   W
|-----------------|-----------------|-----------------|-------|
|-----------------|-----------------|-----------------|-------|
|-----------------|-----------------|-----------------|-------|
|-----------------|-----------------|-----------------|-------|
|-7---------------|-----------------|-----------------|-------|
|-5-5-5-5-5-5-5-5-|-5-5-5-5-5-5-5-5-|-5-5-5-5-5-5-5-5-|-5-----|


    PM------------|                         PM------------|
                      |-3-|     |-3-|
    E E E E E E E E   S S S E E S S S E E   E E E E E E E E    H    H
||------------------|---------------------|-----------------|------------
||o-----------------|---------------------|-----------------|------------
||------------------|---------------------|-----------------|------------
||------------------|---------------------|-----------------|------------
||o-----------------|-8-7-5-----8-7-5-----|-----------------|-10----8----
||--5-5-5-5-5-5-5-5-|-------7-5-------7-5-|-5-5-5-5-5-5-5-5-|--8----6----


  PM------------|                         PM------------|
                    |-3-|     |-3-|
  E E E E E E E E   S S S E E S S S E E   E E E E E E E E   H    H     3x
|-----------------|---------------------|-----------------|------------||
|-----------------|---------------------|-----------------|-----------o||
|-----------------|---------------------|-----------------|------------||
|-----------------|---------------------|-----------------|------------||
|-----------------|-8-7-5-----8-7-5-----|-----------------|-8----5----o||
|-5-5-5-5-5-5-5-5-|-------7-5-------7-5-|-5-5-5-5-5-5-5-5-|-6----3-----||


  Q=215
                            PM----|    PM----|      PM----|
  H    H      W          Q  S S S S Q  S S S S   Q  S S S S Q  Q
|-----------|----------|-----------------------|------------------|
|-----------|----------|-----------------------|------------------|
|-----------|----------|-----------------------|------------------|
|------5----|-3--------|------------5----------|-3----------3-----|
|-4----3----|-1--------|-4----------3--3-3-3-3-|-1--1-1-1-1-1--3--|
|-2---------|----------|-2--2-2-2-2------------|---------------1--|


     PM----|    PM----|      PM----|    PM----|
  Q  S S S S Q  S S S S   Q  S S S S Q  S S S S
|-----------------------|-----------------------|
|-----------------------|-----------------------|
|-----------------------|-----------------------|
|------------5----------|-3----------3----------|
|-4----------3--3-3-3-3-|-1--1-1-1-1-1--1-1-1-1-|
|-2--2-2-2-2------------|-----------------------|


     PM----|    PM--|
  Q  S S S S Q  S S S S   H    H
|-----------------------|-----------|
|-----------------------|-----------|
|-----------------------|-----------|
|------------5----------|-3---------|
|-4----------3--3-3-3-3-|-1----3----|
|-2--2-2-2-2------------|------1----|


   4/4
    Gtrs I, II
       PM------------|            PM----|
    Q  S S S S S S S S S S E   Q  S S S S  Q  Q
||---------------------------|-------------------|
||o--------------------------|-------------------|
||---------------------------|-------------------|
||---------------------------|-------------------|
||o-7------------------8p7p5-|-7----------10--8--|
||--5--5-5-5-5-5-5-5-5-------|-5--5-5-5-5--8--6--|


     PM------------|            PM----|
  Q  S S S S S S S S S S E   Q  S S S S Q  Q
|--------------------------|---------------------||
|--------------------------|--------------------o||
|--------------------------|---------------------||
|--------------------------|---------------------||
|-7------------------8p7p5-|-7----------8--5----o||
|-5--5-5-5-5-5-5-5-5-------|-5--5-5-5-5-6--3-----||


                            PM----|    PM----|      PM----|
  H    H      W          Q  S S S S Q  S S S S   Q  S S S S Q  Q
|-----------|----------|-----------------------|------------------|
|-----------|----------|-----------------------|------------------|
|-----------|----------|-----------------------|------------------|
|------5----|-3--------|------------5----------|-3----------3-----|
|-4----3----|-1--------|-4----------3--3-3-3-3-|-1--1-1-1-1-1--3--|
|-2---------|----------|-2--2-2-2-2------------|---------------1--|


     PM----|    PM----|      PM----|    PM----|
  Q  S S S S Q  S S S S   Q  S S S S Q  S S S S
|-----------------------|-----------------------|
|-----------------------|-----------------------|
|-----------------------|-----------------------|
|------------5----------|-3----------3----------|
|-4----------3--3-3-3-3-|-1--1-1-1-1-1--1-1-1-1-|
|-2--2-2-2-2------------|-----------------------|


     PM----|    PM--|
  Q  S S S S Q  S S S S   H    H
|-----------------------|-----------|
|-----------------------|-----------|
|-----------------------|-----------|
|------------5----------|-3---------|
|-4----------3--3-3-3-3-|-1----3----|
|-2--2-2-2-2------------|------1----|


    Q=215
   4/4
    Gtrs I, II
       PM------------|            PM----|
    Q  S S S S S S S S S S E   Q  S S S S  Q  Q
||---------------------------|-------------------|
||o--------------------------|-------------------|
||---------------------------|-------------------|
||---------------------------|-------------------|
||o-7------------------8p7p5-|-7----------10--8--|
||--5--5-5-5-5-5-5-5-5-------|-5--5-5-5-5--8--6--|


     PM------------|            PM----|
  Q  S S S S S S S S S S E   Q  S S S S Q  Q
|--------------------------|---------------------||
|--------------------------|--------------------o||
|--------------------------|---------------------||
|--------------------------|---------------------||
|-7------------------8p7p5-|-7----------8--5----o||
|-5--5-5-5-5-5-5-5-5-------|-5--5-5-5-5-6--3-----||


       PM----|               PM----|
    Q  S S S S S S E Q    Q  S S S S S S E Q
||----------------------|---------------------|
||o---------------------|---------------------|
||----------------------|---------------------|
||----------------------|---------------------|
||o-7----------8p7p5-8--|-7----------8p7p5-7--|
||--5--5-5-5-5----------|-5--5-5-5-5----------|


     PM----|            PM  PM|    PM|   PM
  Q  S S S S S S E Q    S S S S Q  S S S S Q
|---------------------|--------------------------||
|---------------------|-------------------------o||
|---------------------|--------------------------||
|---------------------|---------5----------5-----||
|-7----------8p7p5-8--|---------3----------3----o||
|-5--5-5-5-5----------|-3-3-3-3----3-3-3-3-------||


     PM----|              PM----|    PM----|
  Q  S S S S E. E. E   Q  S S S S Q  S S S S
|--------------------|-----------------------|
|--------------------|-----------------------|
|-4----------5--4--7-|-----------------------|
|-2--2-2-2-2-3--2--5-|-5----------7----------|
|--------------------|-3--3-3-3-3-5--5-5-5-5-|
|--------------------|-----------------------|


     PM----|              PM----|    PM----|
  Q  S S S S E. E. E   Q  S S S S Q  S S S S
|--------------------|-------------------------|
|--------------------|-------------------------|
|-4----------5--4--7-|-------------------------|
|-2--2-2-2-2-3--2--5-|-5----------5------------|
|--------------------|-3--3-3-3-3-3--3-3-3-3---|
|--------------------|-------------------------|


     PM----|              PM----|    PM----|      PM----|
  Q  S S S S E. E. E   Q  S S S S Q  S S S S   Q  S S S S E. E. E   H    H
|--------------------|-----------------------|--------------------|-----------|
|--------------------|-----------------------|--------------------|-----------|
|-4----------5--4--7-|-----------------------|-4----------5--4--7-|-----------|
|-2--2-2-2-2-3--2--5-|-5----------7----------|-2--2-2-2-2-3--2--5-|-5----3----|
|--------------------|-3--3-3-3-3-5--5-5-5-5-|--------------------|-3----1----|
|--------------------|-----------------------|--------------------|-----------|


  Q=120
  PM--|
  |-3-|
  S S S Q   H
|----------------*|
|----------------*|
|-------9\-------*|
|-------7\-------*|
|----------------*|
|-5-5-5----------*|


Duration Legend
---------------
W - whole; H - half; Q - quarter; E - 8th; S - 16th;
T - 32nd; X - 64th; a - acciaccatura
+ - note tied to previous; . - note dotted; .. - note double dotted
Uncapitalized letters represent notes that are staccato (1/2 duration)
Irregular groupings are notated above the duration line
Duration letters will always appear directly above the note/fret number it
represents the duration for.  Duration letters with no fret number below them
represent rests.  Multi-bar rests are notated in the form Wxn, where n is the
number of bars to rest for.  Low melody durations appear below the staff

Tablature Legend
----------------
 h   - hammer-on
 p   - pull-off
 b   - bend
 pb  - pre-bend
 r   - bend release (if no number after the r, then release immediately)
 /\  - slide into or out of (from/to "nowhere")
 s   - legato slide
 S   - shift slide
<n>  - natural harmonic
[n]  - artificial harmonic
n(n) - tapped harmonic
 ~   - vibrato
 tr  - trill
 T   - tap
 TP  - trem. picking
 PM  - palm muting
\n/  - tremolo bar dip; n = amount to dip
 \n  - tremolo bar down
 n/  - tremolo bar up
/n\  - tremolo bar inverted dip
 =   - hold bend; also acts as connecting device for hammers/pulls
 <>  - volume swell (louder/softer)
 x   - on rhythm slash represents muted slash
 o   - on rhythm slash represents single note slash

Misc Legend
-----------
 |  - bar
||  - double bar
||o - repeat start
o|| - repeat end
*|  - double bar (ending)
 :  - bar (freetime)
 $  - Segno
 &  - Coda
Tempo markers - <E/E./Q/Q./H/H.> = BPM(8/16=s8/s16),
where s8 = swing 8ths, s16 = swing 16ths

  Visit MetalTabs.com for more metal tablature

bottom separator

Contact Us | Privacy Policy | Disclaimer | Legal Notice
Copyright © 2001-2014 MetalTabs.com. All Rights Reserved.