top separator

Home

Forum

What's New

Submit a Tab

FAQ

Links

Contact Us

Link to Us

MetalTabs.com logo

Bands

0-9

A

B

C

D

E

F

G

H

I

J

K

L

M

N

O

P

Q

R

S

T

U

V

W

X

Y

Z

Search

What

Where
 

Crowbar - "Dead Sun" Guitar Tab

Plain Text Version
More Crowbar Tabs

Hits: 5125
Rated: 3.50 out of 5 (6 votes)
Updated: 2005-03-16 15:59:27

 

By:

Father Death

sendpm.gif

email.gif

Important note
This tab is available online because we obtained explicit permission from Crowbar or their label.


#----------------------------------PLEASE NOTE---------------------------------#
#This file is the author's own work and represents their interpretation of the #
#song. You may only use this file for private study, scholarship, or research. #
#Unless specified otherwise, this is NOT an official tab from the band members.#
#------------------------------------------------------------------------------#

  Visit MetalTabs.com for more metal tablature
  
Band:  CROWBAR
Album: Life's Blood For The Downtrodden
Song:  Dead Sun

Transcribed by: Chris Humeniuk
Email:  father_death_666@hotmail.com

Tuning: 2.5 steps down (B)

Keys:
 ___ - palm mute
  b  - bend
 / \ - slide


RIFF Aa:

|----------------------------------|     |----------------------------------|
|----------------------------------|     |----------------------------------|
|----------------------------------|     |----------------------------------|
|-7-10-9-10-8--7--5--7-7-7-7-7-7-7-|     |-7-10-9-10-8--7--5--0-0-0-----0-0-|
|-5--8-7--8-8--7--5--5-5-5-5-5-5-5-|     |-5--8-7--8-8--7--5--0-0-0-----0-0-|
|-5--8-7--8-6--5--3--5-5-5-5-5-5-5-| 3x  |-5--8-7--8-6--5--3--------1b------|
                     _____________                            _____     ___

|----------------------------------|     |----------------------------------|
|----------------------------------|     |----------------------------------|
|----------------------------------|     |----------------------------------|
|-7-10-9-10-8--7--5--7-7-7-7-7-7-7-|     |-7-10-9-10-8--7--5--0-0-0-----0-0-|
|-5--8-7--8-8--7--5--5-5-5-5-5-5-5-|     |-5--8-7--8-8--7--5--0-0-0-----0-0-|
|-5--8-7--8-6--5--3--5-5-5-5-5-5-5-| 3x  |-5--8-7--8-6--5--3--------1b------|
                     _____________                            _____     ___

|----------------------------------|     |------------------------------------|
|----------------------------------|     |------------------------------------|
|----------------------------------|     |------------------------------------|
|-7-10-9-10-8--7--5--7-7-7-7-7-7-7-|     |-7-10-9-10-8--7--5--0-0-0-----0-0-0-|
|-5--8-7--8-8--7--5--5-5-5-5-5-5-5-|     |-5--8-7--8-8--7--5--0-0-0-----0-0-0-|
|-5--8-7--8-6--5--3--5-5-5-5-5-5-5-| 3x  |-5--8-7--8-6--5--3--------1b--------|
                     _____________                            _____     _____


RIFF Ba:
(Gtr 1)
|----------------------------|     |-------------------------------|
|----------------------------|     |-------------------------------|
|----------------------------|     |-------------------------------|
|-2--------------------------|     |-2-----------------------------|
|-2--3--2--------5----2------|     |-2--3--2--------5----4----2----|
|-0--------3~-2-----2---2-00-| 3x  |-0--------3~-2-----2----2------|
                          __

(Gtr 2)
|----------------------------|     |-------------------------------|
|----------------------------|     |-------------------------------|
|----------------2-----------|     |----------------2--------------|
|-2--5--4--2--0--------------|     |-2--5--4--2--0-----------------|
|-2-------------------2------|     |-2-------------------4----2----|
|-0--------------------------| 3x  |-0-----------------------------|


RIFF Ab:

|----------------------------------|     |------------------------------------|
|----------------------------------|     |------------------------------------|
|----------------------------------|     |------------------------------------|
|-7-10-9-10-8--7--5--7-7-7-7-7-7-7-|     |-7-10-9-10-8--7--5--0-0-0-----0-0-0-|
|-5--8-7--8-8--7--5--5-5-5-5-5-5-5-|     |-5--8-7--8-8--7--5--0-0-0-----0-0-0-|
|-5--8-7--8-6--5--3--5-5-5-5-5-5-5-| 5x  |-5--8-7--8-6--5--3--------1b--------|
                     _____________                            _____     _____


RIFF Bb:
(Gtr 1)
|----------------------------|     |----------------------------------------|
|----------------------------|     |----------------------------------------|
|----------------------------|     |----------------------------------------|
|-2--------------------------|     |-2--------------------------------------|
|-2--3--2--------5----2------|     |-2--3--2--------5----2----2-2----2-2----|
|-0--------3~-2-----2---2-00-| 3x  |-0--------3~-2-----2---2--0-0----0-0----|
                          __                                  ___    ___

(Gtr 2)
|----------------------------|     |----------------------------------------|
|----------------------------|     |----------------------------------------|
|----------------2-----------|     |----------------2-----------------------|
|-2--5--4--2--0--------------|     |-2--5--4--2--0--------------------------|
|-2-------------------2------|     |-2-------------------2----2-2----2-2----|
|-0--------------------------| 3x  |-0------------------------0-0----0-0----|
                                                              ___    ___

RIFF C:

|----------------------------------------------------------|
|----------------------------------------------------------|
|----------------------------------------------------------|
|-9--9\-------7-8-7-8-10-----9--9\-------7-8-7-8-10-----8\-|
|-7--7\-------7-8-7-8--8-----7--7\-------7-8-7-8--8-----6\-|
|-7--7\-0-0-0-5-6-5-6--8--9~-7--7\-0-0-0-5-6-5-6--8--99-6\-| 4x
        _____                      _____             __


RIFF Bc:
(Gtr 1)
|----------------------------|     |----------------------------------------|
|----------------------------|     |----------------------------------------|
|----------------------------|     |----------------------------------------|
|-2--------------------------|     |-2--------------------------------------|
|-2--3--2--------5----2------|     |-2--3--2--------5----2----2-2----2-2----|
|-0--------3~-2-----2---2-00-| 7x  |-0--------3~-2-----2---2--0-0----0-0----|
                          __                                  ___    ___

(Gtr 2)
|----------------------------|     |----------------------------------------|
|----------------------------|     |----------------------------------------|
|----------------2-----------|     |----------------2-----------------------|
|-2--5--4--2--0--------------|     |-2--5--4--2--0--------------------------|
|-2-------------------2------|     |-2-------------------2----2-2----2-2----|
|-0--------------------------| 7x  |-0------------------------0-0----0-0----|
                                                              ___    ___


OUTRO:

|----------------------------------|     |-------------|
|----------------------------------|     |-------------|
|----------------------------------|     |-------------|
|-7-7-7-7-7-7-7-7-10-9-10-8--7--5--|     |-0-0-0-0-----|
|-5-5-5-5-5-5-5-5--8-7--8-8--7--5--|     |-0-0-0-0-----|
|-5-5-5-5-5-5-5-5--8-7--8-6--5--3--| 9x  |---------1b--|
  _____________                            _______

  Visit MetalTabs.com for more metal tablature

bottom separator

Contact Us | Privacy Policy | Disclaimer | Legal Notice
Copyright © 2001-2014 MetalTabs.com. All Rights Reserved.