top separator

Home

Forum

What's New

Submit a Tab

FAQ

Links

Contact Us

Link to Us

MetalTabs.com logo

Bands

0-9

A

B

C

D

E

F

G

H

I

J

K

L

M

N

O

P

Q

R

S

T

U

V

W

X

Y

Z

Search

What

Where
 

Brutus (NL) - "Ontrouw" Guitar Tab

Plain Text Version
More Brutus (NL) Tabs

Hits: 3978
Rated: 5.00 out of 5 (1 vote)
Updated: 2005-03-16 15:59:17

 

By:

Yura

sendpm.gif

email.gif

Important note
This tab is available online because we obtained explicit permission from Brutus (NL) or their label.


#----------------------------------PLEASE NOTE---------------------------------#
#This file is the author's own work and represents their interpretation of the #
#song. You may only use this file for private study, scholarship, or research. #
#Unless specified otherwise, this is NOT an official tab from the band members.#
#------------------------------------------------------------------------------#

  Visit MetalTabs.com for more metal tablature
  
--- BRUTUS ---
                                 "Ontrouw"
                     From album: "Slachtbeest"
                     Copyright Unique Leader 2003 
                     Transcribed by: Yura Kowalchuk
                     Contact:[yura@grindcore.net]
                             [yura_kowalchuk@mail.ru]
                    http://brutaltabs.musica.mustdie.ru

                            TABULATURE LEGEND:
                   " - tremolo             h - hammer on
                   ~ - vibrato             \ - slide down
                   p - pull off            / - slide down
                  tr - trill               ^ - pinch harmonics
                   = - sustained note      b - bend string
                p.m. - palm muting         t - tapping

TUNING is dropped G , tune to A then drop it to G (G, D, F, D, F, A)

*Play it quick....
[Riff 1a (x2)]
||---------------------------------|-----------------------------------------|-
||---------------------------------|-----------------------------------------|-
||---------------------------------|-----------------------------------------|-
||-------------------------6-6-6-6-|-------------------------7-7-7-7-6-6-6-6-|-
||---------5-5-5-5-8-8-8-8---------|---------5-5-5-5-8-8-8-8-----------------|-
||-0-0-0-0-------------------------|-0-0-0-0---------------------------------|-
|                                  |                                         |
||---------------------------------|-----------------------------------------|-
||---------------------------------|-----------------------------------------|-
||---------------------------------|-----------------------------------------|-
||-------------------------6-6-6-6-|-------------------------7-7-7-7-6-6-6---|-
||---------5-5-5-5-8-8-8-8---------|---------5-5-5-5-8-8-8-8-----------------|-
||-0-0-0-0-------------------------|-0-0-0-0---------------------------------|-

-|---------------------------------|--------------------------||
-|---------------------------------|--------------------------||
-|---------------------------------|--------------------------||
-|-------------------------6-6-6-6-|-5-5-5-5------------------||
-|---------5-5-5-5-8-8-8-8---------|---------4-4-4-4-4-4-4-4--||
-|-0-0-0-0-------------------------|--------------------------||
 |                                 |                           |
-|---------------------------------|--------------------------||
-|---------------------------------|--------------------------||
-|---------------------------------|--------------------------||
-|-------------------------6-6-6-6-|-5-5-5-5------------------||
-|---------5-5-5-5-8-8-8-8---------|---------4-4-4-4-4-4-4-4--||
-|-0-0-0-0-------------------------|--------------------------||

[Riff 1b]
||---------------------------------|-----------------------------------------|-
||---------------------------------|-----------------------------------------|-
||---------------------------------|-----------------------------------------|-
||-------------------------6-6-6-6-|-------------------------7-7-7-7-6-6-6-6-|-
||---------5-5-5-5-8-8-8-8---------|---------5-5-5-5-8-8-8-8-----------------|-
||-0-0-0-0-------------------------|-0-0-0-0---------------------------------|-
 |                                 |                                         |
||---------------------------------|-----------------------------------------|-
||---------------------------------|-----------------------------------------|-
||-------------------------4-4-4-4-|-------------------------5-5-5-5-4-4-4-4-|-
||---------3-3-3-3-6-6-6-6---------|---------3-3-3-3-6-6-6-6-----------------|-
||---------------------------------|-----------------------------------------|-
||-0-0-0-0-------------------------|-0-0-0-0---------------------------------|-

-|---------------------------------|--------------------------||
-|---------------------------------|--------------------------||
-|---------------------------------|--------------------------||
-|-------------------------6-6-6-6-|-5-5-5-5------------------||
-|---------5-5-5-5-8-8-8-8---------|---------4-4-4-4-4-4-4-4--||
-|-0-0-0-0-------------------------|--------------------------||
 |                                 |                           |
-|---------------------------------|--------------------------||
-|---------------------------------|--------------------------||
-|-------------------------4-4-4-4-|-3-3-3-3------------------||
-|---------3-3-3-3-6-6-6-6---------|---------2-2-2-2-2-2-2-2--||
-|---------------------------------|--------------------------||
-|-0-0-0-0-------------------------|--------------------------||

[Riff 1a]

[Riff 2]
||------------------------------------------------------------------|-
||------------------------------------------------------------------|-
||------------------------------------------------------------------|-
||------------------------------------------------------------------|-
||-7-7-7-7-7-7-7h10-7-7-7-7-6-6-6-6-6-6-6h9-6-6-6-6-5-5-5-5-5-5-5h8-|-
||------------------------------------------------------------------|-
 |                                                                  |
||------------------------------------------------------------------|-
||------------------------------------------------------------------|-
||------------------------------------------------------------------|-
||------------------------------------------------------------------|-
||-7-7-7-7-7-7-7h10-7-7-7-7-6-6-6-6-6-6-6h9-6-6-6-6-5-5-5-5-5-5-5h8-|-
||------------------------------------------------------------------|-

-|---------------------------------------------|-
-|---------------------------------------------|-
-|---------------------------------------------|-
-|---------------------------------------------|-
-|-5-5-5-5-3-3-3-3-3-3-3h6-3-3-3-3-2-1-0-2-1-0-|-
-|---------------------------------2-1-0-2-1-0-|-
 |                                 . . . . . . |
-|---------------------------------------------|-
-|---------------------------------------------|-
-|---------------------------------------------|-
-|---------------------------------------------|-
-|-5-5-5-5-3-3-3-3-3-3-3h6-3-3-3-3-2-1-0-2-1-0-|-
-|---------------------------------2-1-0-2-1-0-|-
                                   . . . . . .

-|------------------------------------------------------------------|-
-|------------------------------------------------------------------|-
-|------------------------------------------------------------------|-
-|------------------------------------------------------------------|-
-|-7-7-7-7-7-7-7h10-7-7-7-7-6-6-6-6-6-6-6h9-6-6-6-6-5-5-5-5-5-5-5h8-|-
-|------------------------------------------------------------------|-
 |                                                                  |
-|------------------------------------------------------------------|-
-|------------------------------------------------------------------|-
-|------------------------------------------------------------------|-
-|------------------------------------------------------------------|-
-|-7-7-7-7-7-7-7h10-7-7-7-7-6-6-6-6-6-6-6h9-6-6-6-6-5-5-5-5-5-5-5h8-|-
-|------------------------------------------------------------------|-

[ending 1]
---------------------------||
---------------------------||
---------------------------||
---------------------------||
-5-5-5-5-2-1-0-2-1-0-------||
---------2-1-0-2-1-0-3-4-3-||
         . . . . . .        |
---------------------------||
---------------------------||
---------------------------||
---------------------------||
-5-5-5-5-2-1-0-2-1-0-------||
---------2-1-0-2-1-0-3-4-3-||
         . . . . . .

[ending 2]
-------------------------------||
-------------------------------||
-------------------------------||
-------------------------------||
-5-5-5-5-2-1-0-2-1-0-----------||
---------2-1-0-2-1-0-3h4-4p3---||
         . . . . . .            |
-------------------------------||
-------------------------------||
-------------------------------||
-------------------------------||
-5-5-5-5-2-1-0-2-1-0-----------||
---------2-1-0-2-1-0-3h4-4p3---||
         . . . . . .

[Riff 2b]
||---------------------------------------------------------------------------|
||---------------------------------------------------------------------------|
||---------------------------------------------------------------------------|
||-------------4tr5------------------------3tr4-----------------------2tr3---|
||-4---5---7-------------------3---4---6------------------2---3---5----------|
||---------------------------------------------------------------------------|
 | .   .   .                   .   .   .                  .   .   .          |
||---------------------------------------------------------------------------|
||---------------------------------------------------------------------------|
||---------------------------------------------------------------------------|
||---------------------------------------------------------------------------|
||-7-7-7-7-7-7-7h===10-7-7-7-7-6-6-6-6-6-6-6h===9-6-6-6-6-5-5-5-5-5-5-5h===8-|
||---------------------------------------------------------------------------|


-|--------------------------------------------------------|-
-|--------------------------------------------------------|-
-|--------------------------------------------------------|-
-|--------------------------------------------------------|-
-|--------------0---2---3---5tr6-----------2-1-0-2-1-0----|-
-|-----------------------------------------2-1-0-2-1-0----|-
 |              .   .   .                  . . . . . .    |
-|--------------------------------------------------------|-
-|--------------------------------------------------------|-
-|--------------------------------------------------------|-
-|--------------------------------------------------------|-
-|--5-----5-5-5-3-3-3-3-3-3-3h===6-3-3-3-3-2-1-0-2-1-0----|-
-|-----------------------------------------2-1-0-2-1-0----|-
                                           . . . . . .

-|-------------------------------------------------------------------|-
-|-------------------------------------------------------------------|-
-|-------------------------------------------------------------------|-
-|-------------------------------------------------------------------|-
-|-7-7-7-7-7-7-7h10-7-7--7-7-6-6-6-6-6-6-6h9-6-6-6-6-5-5-5-5-5-5-5h8-|-
-|-------------------------------------------------------------------|-
 |                                                                   |
-|-------------------------------------------------------------------|-
-|-------------------------------------------------------------------|-
-|-------------------------------------------------------------------|-
-|---------7---8----7----------------6---7---6---------------5---6---|-
-|-7---9----------------10---6---8---------------9---5---7-----------|-
-|-------------------------------------------------------------------|-
   .   .   .   .    .   .    .   .   .   .   .   .   .   .   .   .

[ending 1]
---------------------------||
---------------------------||
---------------------------||
---------------------------||
-5-5-5-5-2-1-0-2-1-0-------||
---------2-1-0-2-1-0-3-4-3-||
         . . . . . .        |
---------------------------||
---------------------------||
---------------------------||
-5-------------------------||
-----8---2-1-0-2-1-0-------||
---------2-1-0-2-1-0-3-4-3-||
         . . . . . .

[ending 2]
-----------------------------||
-----------------------------||
-----------------------------||
-----------------------------||
-5-5-5-5-2-1-0-2-1-0---------||
---------2-1-0-2-1-0-3h4-4p3-||
         . . . . . .          |
-----------------------------||
-----------------------------||
-----------------------------||
-5---------------------------||
-----8---2-1-0-2-1-0---------||
---------2-1-0-2-1-0-3h4-4p3-||
 .   .   . . . . . .

[Outro]
||----------------------------|----------------------------||
||----------------------------|----------------------------||
||----------------------------|----------------------------||
||----------------------------|----------------------------||
||----------------------------|----------------------------||
||-------------------------2~-|-1~-0-0-4~-0-0-1~-0-4~-0-2~-||
 |                            |    . .    . .    .    .     |
||----------------------------|----------------------------||
||----------------------------|----------------------------||
||----------------------------|----------------------------||
||----------------------------|----------------------------||
||----------------------------|----------------------------||
||-1~-0-0-4~-0-0-1~-0-0-4~-2~-|-0-------------1~-0-4~-0-2~-||
      . .    . .    . .         .                .    .

[Riff 3 (x2)]
||----------------------------|----------------------------||
||----------------------------|----------------------------||
||----------------------------|----------------------------||
||----------------------------|----------------------------||
||----------------------------|----------------------------||
||-1~-0-0-4~-0-0-1~-0-0-4~-2~-|-1~-0-0-4~-0-0-1~-0-4~-0-2~-||
      . .    . .    . .            . .    . .    .    .

[Riff 4]
||----------------------------------|---------------------------------||
||----------------------------------|---------------------------------||
||----------------------------------|---------------------------------||
||-44333333663333334433333355334433-|-44333333663333334433--66334433--||
||----------------------------------|---------------------------------||
||----------------------------------|---------------------------------||
|                                   |                                  |
||----------------------------------|---------------------------------||
||----------------------------------|---------------------------------||
||----------------------------------|---------------------------------||
||----------------------------------|---------------------------------||
||----------------------------------|---------------------------------||
||-44333333663333334433333355334433-|-44333333663333334433--66334433--||

[RIFF 3] [RIFF 1]

[Riff 5]
||----------------------------------|-----------------------------------|-
||------------------------------^---|-----------------------------------|-
||-----------------------------[4]~-|-----------------------------------|-
||-------6-------7-6-------6-5------|-------6-------7-6-------6-5-------|-
||---5-8-----5-8-------5-8----------|---5-8-----5-8-------5-8---------6-|-
||-0-------0---------0--------------|-0-------0---------0---------8-7---|-
| . . . . . . . . . . . . . .       | . . . . . . . . . . . . . . . . . |
||----------------------------------|-----------------------------------|-
||----------------------------------|-----------------------------------|-
||----------------------------------|-------4-------5-4-------4-3-------|-
||-------6-------7-6-------6-5------|---3-6-----3-6-------3-6---------4-|-
||---5-8-----5-8-------5-8------4~~-|-----------------------------6-5---|-
||-0-------0---------0--------------|-0-------0---------0---------------|-
   . . . . . . . . . . . . . .        . . . . . . . . . . . . . . . . .

-|---------------------------------|-----------------------------------||
-|---------------------------------|-----------------------------------||
-|---------------------------------|-----------------------------------||
-|-------6-------7-6-------6-5-----|-------6-------7-6-------6-5-------||
-|---5-8-----5-8-------5-8-----4-3-|---5-8-----5-8-------5-8---------6-||
-|-0-------0---------0-------------|-0-------0---------0---------8-7---||
 | . . . . . . . . . . . . . . . . | . . . . . . . . . . . . . . . . .  |
-|---------------------------------|-----------------------------------||
-|---------------------------------|-----------------------------------||
-|---------------------------------|-------4-------5-4-------4-3-------||
-|-------6-------7-6-------6-5-----|---3-6-----3-6-------3-6---------4-||
-|---5-8-----5-8-------5-8-----4-3-|-----------------------------6-5---||
-|-0-------0---------0-------------|-0-------0---------0---------------||
   . . . . . . . . . . . . . . . .   . . . . . . . . . . . . . . . . .

[RIFF 2b + ending 1] [RIFF 2b + ending 2]

[Riff 6 (x2)]
||----------------------------------|----------------------------------------||
||----------------------------------|----------------------------------------||
||----------------------------------|----------------------------------------||
||----------------------------------|----------------------------------------||
||---------------------------333333-|----------------------------------------||
||-1~--2~--0-0-0-1-2-0-0-1-0--------|-333444333000111111-0-0-3-0-0-0-3-4-3-1-||
|           . . . . . . . . .       | .................. . . . . . . . . . .  |
||----------------------------------|----------------------------------------||
||----------------------------------|----------------------------------------||
||----------------------------------|----------------------------------------||
||----------------------------------|----------------------------------------||
||---------------------------333333-|----------------------------------------||
||-1~--2~--0-0-0-1-2-0-0-1-0--------|-333444333000111111-0-0-3-0-0-0-3-4-3-1-||
            . . . . . . . . .          .................. . . . . . . . . . .

[RIFF 3 (x2)]

[Outro 2] /fucking fast!!!/
||-------------------------------------------|-
||-------------------------------------------|-
||-------------------------------------------|-
||-------------------------------------------|-
||-------------------------------------------|-
||---------------------------------------0-0-|-
|                                        . . |
||-------------------------------------------|-
||-------------------------------------------|-
||-------------------------------------------|-
||-7/8\7-----7/10\7-----7/8\7-----7/10\7-----|-
||-5/6\5-----5/-8\5-----5/6\5-----5/-8\5-----|-
||-------0-0--------0-0-------0-0--------0-0-|-
         . .        . .       . .        . .

-|--------------------------------------||
-|--------------------------------------||
-|--------------------------------------||
-|--------------------------------------||
-|--------------------------------------||
-|--------------------------------------||
 |                                       |
-|--------------------------------------||
-|--------------------------------------||
-|--------------------------------------||
-|-7/8\7-----7/10\7-----7/8\7----7/10\7-||
-|-5/6\5-----5/-8\5-----5/6\5----5/-8\5-||
-|-------0-0--------0-0-------0---------||
         . .        . .       .

[Riff 7]
||---------------------------------------------------------||
||---------------------------------------------------------||
||---------------------------------------------------------||
||---------------------------------------------------------||
||---------------------------------------------------------||
||-1~-0-0-4~-0-0-1~-0-0-4~-0-0--1~-0-0-4~-0-0-1~-0-4~-0-2~-||
      . .    . .    . .    . .     . .    . .    .    .

[RIFF 4]

[Ending]
||---------------------------------------||
||---------------------------------------||
||---------------------------------------||
||---------------------------------------||
||---------------------------5-8~-5------||
||-1~-0-0-4~-0-0-1~-0-0-4~-0-------------||
 |    . .    . .    . .    .              |
||---------------------------------------||
||---------------------------------------||
||---------------------------------------||
||---------------------------------------||
||---------------------------------------||
||-1~-0-0-4~-0-0-1~-0-0-4~-0-0-4~-0------||
      . .    . .    . .    .      .

END OF SONG

  Visit MetalTabs.com for more metal tablature

bottom separator

Contact Us | Privacy Policy | Disclaimer | Legal Notice
Copyright © 2001-2014 MetalTabs.com. All Rights Reserved.