top separator

Home

Forum

What's New

Submit a Tab

FAQ

Links

Contact Us

Link to Us

MetalTabs.com logo

Bands

0-9

A

B

C

D

E

F

G

H

I

J

K

L

M

N

O

P

Q

R

S

T

U

V

W

X

Y

Z

Search

What

Where
 

Decapitated - "Lying And Weak" Guitar Tab

Plain Text Version
More Decapitated Tabs

Hits: 5805
Rated: 3.33 out of 5 (3 votes)
Updated: 2005-03-16 13:47:50

 

By:

Yura

sendpm.gif

email.gif

Important note
This tab is available online because we obtained explicit permission from Decapitated or their label.


#----------------------------------PLEASE NOTE---------------------------------#
#This file is the author's own work and represents their interpretation of the #
#song. You may only use this file for private study, scholarship, or research. #
#Unless specified otherwise, this is NOT an official tab from the band members.#
#------------------------------------------------------------------------------#

  Visit MetalTabs.com for more metal tablature
  
--- DECAPITATED ---
                              "Lying And Weak"
                     From album: "The Negation"
                     Copyright Earache Records 2004 
                     Transcribed by: Yura Kowalchuk
                     Contact:[yura@grindcore.net]
                             [yura_kowalchuk@mail.ru]
                    http://brutaltabs.musica.mustdie.ru

                            TABULATURE LEGEND:
                   " - tremolo             h - hammer on
                   ~ - vibrato             \ - slide down
                   p - pull off            / - slide down
                  tr - tremolo picking     ^ - pinch harmonics
                   = - sustained note      b - bend string
                p.m. - palm muting         t - tapping

TUNING: C# [C#,F#,B,e,g#,c#]

           [Riff 1]
|--------||----------------------------------------|-
|--------||o---------------------------------------|-
|--------||----------------------------------------|-
|--------||----------------------3-----------------|-
|-6-5-3--||o-3-------------------1-------------6-5-|-
|-4-3-1--||--1-0-0-0-0-0-0-0-0-0---0-0-0-0-0-0-4-3-|-
  . .          . . . . . . . . .   . . . . . .

                                   3x
-|----------------------------------||
-|---------------------------------o||
-|----------------------------------||
-|-----------------6----------------||
-|-3-------2-------4-------5\4-6-5-o||
-|-1-0-0-0-0-0-0-0---0-0-0-3\2-4-3--||
     . . .   . . .   . . .     . .

[outro 1]
|---------------------------------------|-------------------------------|
|---------------------------------------|-------------------------------|
|---------------------------------------|-----------------------------4-|
|---------------------3-----------------|-----------------6-------------|
|-3-------------------1-------------6-5-|-3-------2-------4-------6-5-2-|
|-1-0-0-0-0-0-0-0-0-0---0-0-0-0-0-0-4-3-|-1-0-0-0-0-0-0-0---0-0-0-4-3---|
    . . . . . . . . .   . . . . . . . .     . . .   . . .   . . . . .

[Riff 2]
||-------------------------------------|---------------------------------|-
||-------------------------------------|---------------------------------|-
||-3---------------------------------9-|-----------------7-------6-------|-
||---------------------5---------------|-5-------2-----------------------|-
||-1---------------------------------7-|---------2-------5-------4-------|-
||---0-0-0-0-0-0-0-0-0-3-0-0-0-0-0-0---|-3-0-0-0-0-0-0-0---0-0-0---0-0-0-|-
     . . . . . . . . .   . . . . . .       . . .   . . .   . . .   . . .

-|-------------------------------------|----------------------------------|-
-|-------------------------------------|----------------------------------|-
-|-3---------------------------------9-|-----------------6-------10-------|-
-|---------------------5---------------|-5-------2------------------------|-
-|-1---------------------------------7-|---------2-------4--------8-------|-
-|---0-0-0-0-0-0-0-0-0-3-0-0-0-0-0-0---|-3-0-0-0-0-0-0-0---0-0-0----0-0-0-|-
     . . . . . . . . .   . . . . . .       . . .   . . .   . . .    . . .

-|-------------------------------------|---------------------------------|-
-|-------------------------------------|---------------------------------|-
-|-3---------------------------------9-|-----------------7-------6-------|-
-|---------------------5---------------|-5-------2-----------------------|-
-|-1---------------------------------7-|---------2-------5-------4-------|-
-|---0-0-0-0-0-0-0-0-0-3-0-0-0-0-0-0---|-3-0-0-0-0-0-0-0---0-0-0---0-0-0-|-
     . . . . . . . . .   . . . . . .       . . .   . . .   . . .   . . .

-|-------------------------------------|----------------------------------||
-|-------------------------------------|----------------------------------||
-|-3---------------------------------9-|----------------------------------||
-|---------------------5---------------|-5-------8-------8-------------8--||
-|-1---------------------------------7-|---------6-------6-------------6--||
-|---0-0-0-0-0-0-0-0-0-3-0-0-0-0-0-0---|-3-0-0-0-6-0-0-0-6-0-0-0-0-0-0-6--||
     . . . . . . . . .   . . . . . .       . . .   . . .   . . . . . .

[Riff 3]
||--------------------------|------------------------------|-
||--------------------------|------------------------------|-
||--------------------------|------------------------------|-
||--------------------------|---------4444--------4444-----|-
||-4-2-3-2-3-6-3-4-2-3-2-3--|--------------------------5-4-|-
||-2-0-1-0-1-4-1-2-0-1-0-1--|-33302220----33302220-----3-2-|-
   . . . . . . . . . . . .    ........................ . .

-|--------------------------|---------------------------------------------|
-|--------------------------|---------------------------------11-10-8-10--|
-|--------------------------|--------------------9-8-7-8-9-11-------------|
-|--------------------------|-------8-7-5-7-8-10--------------------------|
-|-4-2-3-2-3-6-3-4-2-3-2-3--|-6-7-9---------------------------------------|
-|-2-0-1-0-1-4-1-2-0-1-0-1--|---------------------------------------------|
   . . . . . . . . . . . .

-|--------------------------|------------------------------|-
-|--------------------------|------------------------------|-
-|--------------------------|------------------------------|-
-|--------------------------|---------4444--------4444-----|-
-|-4-2-3-2-3-6-3-4-2-3-2-3--|--------------------------5-4-|-
-|-2-0-1-0-1-4-1-2-0-1-0-1--|-33302220----33302220-----3-2-|-
   . . . . . . . . . . . .    ........................ . .

-[ending 1]--------||
-------------------||
-------------------||
-------------------||
-4-2-3-2-3-6-3-4-2-||
-2-0-1-0-1-4-1-2-0-||
 . . . . . . . . .

[RIFF 1] [OUTRO 1] [RIFF 2]

  [RIFF 3]
||--------|-[ending 2]-------||
||--------|------------------||
||--------|------------------||
||--------|------------------||
||--------|-4-2-3-2-3-6-3-3--||
||--------|-2-0-1-0-1-4-1-1--||
            . . . . . .

[Riff 4]
||-----------|---------------------------------|-
||o----------|---------------------------------|-
||-----------|---------------------------------|-
||--2=======-|---------------------------------|-
||o-2=======-|-----6\5-5/6-----5/6-6\5-----8-8-|-
||--0=======-|-0-0-4\3-3/4-0-0-3/4-4\3-0-0-6-6-|-
 |           | . .                             |
||-----------|---------------------------------|-
||o----------|---------------------------------|-
||-----------|---------------------------------|-
||--2=======-|---------------------------------|-
||o-2=======-|-----6S5-5S6-----5S6-6S5-----8-8-|-
||--0=======-|-0-0-4S3-3S4-0-0-3S4-4S3-0-0-6-6-|-

                                               4x
|-----------|----------------------------------||-------------|
|-----------|---------------------------------o||-------------|
|------5===-|----------------------------------||-------------|
|-2===-3===-|----------------------------------||-------------|
|-2===-3===-|-----3/5-5/6-6\5-----3---6\5-5/6-o||-2----6-5-3--|
|-0===------|-0-0-1/3-3/4-4\3-0-0-1-0-4\3-3/4--||-0----4-3-1--|
|           | . .             . .   .           | .    . .
|-----------|----------------------------------||-------------|
|-----------|---------------------------------o||-------------|
|-----------|----------------------------------||-------------|
|-2===------|----------------------------------||-------------|
|-2===------|-----3/5-5/6-6\5-----3---6\5-5/6-o||-2----6-5-3--|
|-0===-1~~~-|-0-0-1/3-3/4-4\3-0-0-1-0-4\3-3/4--||-0----4-3-1--|
              . .             . .   .             .    . . .

[RIFF 1] [OUTRO 1] [RIFF 2] [RIFF 3 + ending 2] [RIFF 2]

END OF SONG

  Visit MetalTabs.com for more metal tablature

bottom separator

Contact Us | Privacy Policy | Disclaimer | Legal Notice
Copyright © 2001-2014 MetalTabs.com. All Rights Reserved.