top separator

Home

Forum

What's New

Submit a Tab

FAQ

Links

Contact Us

Link to Us

MuSpy.com

MetalTabs.com logo

Bands

0-9

A

B

C

D

E

F

G

H

I

J

K

L

M

N

O

P

Q

R

S

T

U

V

W

X

Y

Z

Search

What

Where
 

Nattefrost - "Mass Destruction" Guitar Tab

Plain Text Version
More Nattefrost Tabs

Hits: 3387
Rated: 3.00 out of 5 (1 vote)
Updated: 2005-03-16 13:47:09

 

By:

sendpm.gif

email.gif

Important note
This tab is available online because we obtained explicit permission from Nattefrost or their label.


#----------------------------------PLEASE NOTE---------------------------------#
#This file is the author's own work and represents their interpretation of the #
#song. You may only use this file for private study, scholarship, or research. #
#Unless specified otherwise, this is NOT an official tab from the band members.#
#------------------------------------------------------------------------------#

  Visit MetalTabs.com for more metal tablature
  
Band:  Nattefrost
Album:  Blood & Vomit
Song:  Mass Destruction

Copyright (c)  Season of Mist 2004
Version 1.0 - 03/03/05

Tabbed By: progeny of death
Email: progenyofdeath@yahoo.com



Riff 1
--------------------------------------
--------------------------------------
--------------------------------------
----------------------------------4-4-
-5--5-5-5-5--5-5-5-5--5-5-5--4-4--2-2-
-3--3-3-3-3--3-3-3-3--3-3-3--2-2------

------------------------------------------
------------------------------------------
------------------------------------------
------------------------------------------
-5--5-5-5-5--5-5-5-5--5-5-5--4-4--2-2-2-2-
-3--3-3-3-3--3-3-3-3--3-3-3--2-2--0-0-0-0-


Riff 2
---------------------------------
---------------------------------
---------------------------------
-4-4-4-4-4-4-4-4-4-4-4-4--3--3--3
-2-2-2-2-2-2-2-2-2-2-2-2--1--1--1


Riff 3
---------------------------------
---------------------------------
---------------------------------
---------------------------------
-2-2-2-2-2-2-2-2-2-2-2-2-3-3-3-3-
-0-0-0-0-0-0-0-0-0-0-0-0-1-1-1-1-



Structure:

Riff 1  8X
Riff 2  4X
Riff 1  6X
Riff 2  4X
Riff 3  6X
Riff 2  8X

  Visit MetalTabs.com for more metal tablature

bottom separator

Contact Us | Privacy Policy | Disclaimer | Legal Notice
Copyright © 2001-2014 MetalTabs.com. All Rights Reserved.