top separator

Home

Forum

What's New

Submit a Tab

FAQ

Links

Contact Us

Link to Us

MetalTabs.com logo

Bands

0-9

A

B

C

D

E

F

G

H

I

J

K

L

M

N

O

P

Q

R

S

T

U

V

W

X

Y

Z

Search

What

Where
 

Agent Steel - "Know Your Master" Guitar Tab

Plain Text Version
More Agent Steel Tabs

Hits: 4381
Rated: 3.83 out of 5 (6 votes)
Updated: 2005-03-16 13:47:02

 

By:

MetalThrashingMad

sendpm.gif

email.gif

Important note
This tab is available online because we obtained explicit permission from Agent Steel or their label.


#----------------------------------PLEASE NOTE---------------------------------#
#This file is the author's own work and represents their interpretation of the #
#song. You may only use this file for private study, scholarship, or research. #
#Unless specified otherwise, this is NOT an official tab from the band members.#
#------------------------------------------------------------------------------#

  Visit MetalTabs.com for more metal tablature
  
Band: Agent Steel
Album: Omega Conspiracy
Song: Know Your Master
Copyright (c) 1999 Candlelight
Version 1.0 - 3-03-2005
Transcribed By: Steve - MetalThrashingMad
Email: Thrasher502@hotmail.com

* - palm mute                    /
s - slide                       /
~ - vibrato                    /   - bend  up as indicated
h - hammer on
p - pull off                   \
t - right hand tapping          \
( ) - sustained note             \ - bend down as indicated
[] - side note
% - end riff
nh - natural harmonic            |
ph - pinched harmonic            |
tr - trill                       | - pre-bend as indicated
# - percussive note
.+ - continue to next staff      - - - - - hold note as indicated
Suffixes for bends:
5 - half step
1 - whole step
1.5 - step and a half
2 - two steps
2.5 - two and a half steps
[w/bar] - use tremolo bar

Tuning Eb Ab Db Gb Bb Eb

================================================================================


[play 4 times]
|----------------------------------------------------|
|----------------------------------------------------|
|----------------------------------------------------|
|----------------------------------------------------|
|-----7---6---7---6---7-5------7---6---7---6---7s9-7-|
|-000-5-0-4-0-5-0-4-0-5-3--000-5-0-4-0-5-0-4-0-5s7-5-%
  ***   *   *   *   *      ***   *   *   *   *


[play 6 times]
|---------------------------------------------------------------------|
|---------------------------------------------------------------------|
|---------------------------------------------------------------------|
|-9-----9-----9---10----10----10---------------------12-----10----10--|
|-7-----7-----7---8-----8-----8---12-----12-----12---10-----8-----8---|
|---0-0---0-0---0---0-0---0-0---0-10-0-0-10-0-0-10-0----0-0---0-0---0-%
    * *   * *   *   * *   * *   *    * *    *      *    * *   * *   *


|---------------------------------|
|---------------------------------|
|---------------------------------|
|---------------------------------|
|---3-2---1---------3-2---1-------|
|-0-----0---5-3-5-0-----0---5-3-5-|



[play 4 times]
|-------------------------------------------------------------|
|-------------------------------------------------------------|
|-------------------------------------------------------------|
|-------------------------------------------------------------|
|---3-2---1---------3-2---1---------3-2---1--------4--3--6--5-|
|-0-----0---5-3-5-0-----0---5-3-5-0-----0---5-3-5--2--1--4--3-%


[play 5 times]
|---------------------------------------------------------------------|
|---------------------------------------------------------------------|
|---------------------------------------------------------------------|
|-9-----9-----9---10----10----10---------------------12-----10----10--|
|-7-----7-----7---8-----8-----8---12-----12-----12---10-----8-----8---|
|---0-0---0-0---0---0-0---0-0---0-10-0-0-10-0-0-10-0----0-0---0-0---0-|
    * *   * *   *   * *   * *   *    * *    *      *    * *   * *   *


|---------------------------------|
|---------------------------------|
|---------------------------------|
|---------------------------------|
|---3-2---1---------3-2---1-------|
|-0-----0---5-3-5-0-----0---5-3-5-|


[play 4 times]
|-------------------------------------------------------------|
|-------------------------------------------------------------|
|-------------------------------------------------------------|
|-------------------------------------------------------------|
|---3-2---1---------3-2---1---------3-2---1--------4--3--6--5-|
|-0-----0---5-3-5-0-----0---5-3-5-0-----0---5-3-5--2--1--4--3-%


[play 6 times]
|--------------------------------------------------|
|--------------------------------------------------|
|---------------------------------------------5--5-|
|---------------------------------3-----7-----3--3-|
|-7-------7-------7-------7-------1--3--5--7-------|
|-5--5-5--5--5-5--5--5-5--5--5-5-----1-----5-------|
     * *     * *     * *     * *


[play 2 times]
|---------------------------------------------------------------------|
|---------------------------------------------------------------------|
|---------------------------------------------------------------------|
|-9-----9-----9---10----10----10---------------------12-----10----10--|
|-7-----7-----7---8-----8-----8---12-----12-----12---10-----8-----8---|
|---0-0---0-0---0---0-0---0-0---0-10-0-0-10-0-0-10-0----0-0---0-0---0-|
    * *   * *   *   * *   * *   *    * *    *      *    * *   * *   *


[play 2 times]
|-----------------------------------------------------------------|
|-----------------------------------------------------------------|
|-----------------------------------------------------------------|
|-----------------------------------------------------------------|
|-7-----7-----7---8-----8-----8---10----10----10--8-----8-----8---|
|-5-5-5-5-5-5-5-5-6-6-6-6-6-6-6-6-8-8-8-8-8-8-8-8-6-6-6-6-6-6-6-6-|


[play 6 times]
|---------------------------------------------------------------------|
|---------------------------------------------------------------------|
|---------------------------------------------------------------------|
|-9-----9-----9---10----10----10---------------------12-----10----10--|
|-7-----7-----7---8-----8-----8---12-----12-----12---10-----8-----8---|
|---0-0---0-0---0---0-0---0-0---0-10-0-0-10-0-0-10-0----0-0---0-0---0-|
    * *   * *   *   * *   * *   *    * *    *      *    * *   * *   *


|---------------------------------|
|---------------------------------|
|---------------------------------|
|---------------------------------|
|---3-2---1---------3-2---1-------|
|-0-----0---5-3-5-0-----0---5-3-5-|


[play 4 times]
|-------------------------------------------------------------|
|-------------------------------------------------------------|
|-------------------------------------------------------------|
|-------------------------------------------------------------|
|---3-2---1---------3-2---1---------3-2---1--------4--3--6--5-|
|-0-----0---5-3-5-0-----0---5-3-5-0-----0---5-3-5--2--1--4--3-%


|-----------------------------------------------------------------|
|-----------------------------------------------------------------|
|-----------------------------------------------------------------|
|-----------------------------------------------------------------|
|-4--3--6--5--4--3--6--5--4--3--6--5--2---------------(2)----5--4-|
|-2--1--4--3--2--1--4--3--2--1--4--3--0---------------(0)----3--2-|

END

  Visit MetalTabs.com for more metal tablature

bottom separator

Contact Us | Privacy Policy | Disclaimer | Legal Notice
Copyright © 2001-2014 MetalTabs.com. All Rights Reserved.