top separator

Home

Forum

What's New

Submit a Tab

FAQ

Links

Contact Us

Link to Us

MetalTabs.com logo

Bands

0-9

A

B

C

D

E

F

G

H

I

J

K

L

M

N

O

P

Q

R

S

T

U

V

W

X

Y

Z

Search

What

Where
 

Malevolent Creation - "Slaughter Of Innocence" Guitar Tab

Plain Text Version
More Malevolent Creation Tabs

Hits: 5881
Rated: 2.50 out of 5 (2 votes)
Updated: 2005-08-17 15:43:25

 

By:

MetalThrashingMad

sendpm.gif

email.gif

Important note
This tab is available online because we obtained explicit permission from Malevolent Creation or their label.


#----------------------------------PLEASE NOTE---------------------------------#
#This file is the author's own work and represents their interpretation of the #
#song. You may only use this file for private study, scholarship, or research. #
#Unless specified otherwise, this is NOT an official tab from the band members.#
#------------------------------------------------------------------------------#

  Visit MetalTabs.com for more metal tablature
  
MALEVOLENT CREATION
                       As recorded by Malevolent Creation
                        (From the 1992 Album RETRIBUTION)
                          Copyright (c) 1992 Roadrunner


Arranged by Malevolent Creation
Transcribed by Steve Rubaszek
Version: Final, July 20, 2005


Gtr I (D G C F A D) - 'Guitar 1'
Gtr II (D G C F A D) - 'Guitar 2'
Gtr III (D G C F A D) - 'lead'


 0:00
  Q=220
 4/4
  Gtr I
                    PM----------------------------|
  E E E E E E E E   S S E S S E S S E S S E   S S E Q  E E E E
|-----------------|-------------------------|------------------|
|-----------------|-------------------------|------------------|
|-----------------|-------------------------|------------------|
|-----------------|-------------------------|------------------|
|---5-4---6-------|-------------------------|-------3--3S6-5-4-|
|-4-----4---4-2-3-|-0-0-0-0-0-0-0-0-0-0-0-0-|-0-0-0-1--1S4-3-2-|
|
| Gtr II
| E E E E E E E E   W                         Q     Q  E E E E
|-----------------|-------------------------|------------------|
|-----------------|-------------------------|------------------|
|-----------------|-------------------------|------------------|
|-----------------|-------------------------|------------------|
|---5-4---6-------|-------------------------|-------3--3S6-5-4-|
|-4-----4---4-2-3-|-------------------------|-------1--1S4-3-2-|


  Gtrs I, II
  PM------------------|
  E S S E E S S E S S E   E E E E E E Q     E E E E E E E E
|-----------------------|-----------------|-----------------|
|-----------------------|-----------------|-----------------|
|-----------------------|-----------------|-----------------|
|-----------------------|-3-2---------5\--|-----------------|
|-----------------------|-----5-4-5-4-----|---5-4---6-------|
|-0-0-0-0-0-0-0-0-0-0-0-|-----------------|-4-----4---4-2-3-|


  PM--------------------------------|
  E S S E E S S E S S E   S S E S S E E E E E
|-----------------------|---------------------|
|-----------------------|---------------------|
|-----------------------|---------------------|
|-----------------------|---------------------|
|-----------------------|-------------4S6-5S4-|
|-0-0-0-0-0-0-0-0-0-0-0-|-0-0-0-0-0-0-2S4-3S2-|


  PM------------------|                ~~~
  E S S E E S S E S S E   E E E E E E  Q
|-----------------------|-------------------|
|-----------------------|-------------------|
|-----------------------|-------------------|
|-----------------------|-3-2---------[5]---|
|-----------------------|-----5-4-5-4-------|
|-0-0-0-0-0-0-0-0-0-0-0-|-------------------|


  PM--------------------------------|
  E S S E E S S E S S E   S S E S S E E E E E
|-----------------------|---------------------|
|-----------------------|---------------------|
|-----------------------|---------------------|
|-----------------------|---------------------|
|-----------------------|-------------4S6-5S4-|
|-0-0-0-0-0-0-0-0-0-0-0-|-0-0-0-0-0-0-2S4-3S2-|


  PM------------------|
  E S S E E S S E S S E   E E E E E E Q
|-----------------------|------------------|
|-----------------------|------------------|
|-----------------------|------------------|
|-----------------------|-3-2---------5\---|
|-----------------------|-----5-4-5-4------|
|-0-0-0-0-0-0-0-0-0-0-0-|------------------|


                                 PM----------|
  E E E E E E E E   Q  H.        E E E E E E Q
|-----------------|------------|----------------|
|-----------------|------------|----------------|
|-----------------|------------|----------------|
|-----------------|------------|----------------|
|---5-4---6-------|-2----------|----------------|
|-4-----4---4-2-3-|-0----------|-0-5-4-1-4-5-1--|


  Gtr I
     PM------------------|
  E  S S E E S S E  S  S E   S S S S S S S S S S S S Q
|--------------------------|-----------------------------|
|--------------------------|-----------------------------|
|--------------------------|-----------------------------|
|--------------------------|-3-3-3-3-2-2-------------5\--|
|-2------------------------|-------------4-4-5-5-4-4-----|
|-0--0-0-0-0-0-0-0--0--0-0-|-----------------------------|
|
| Gtr II
| H.                Q        S S S S S S S S S S S S Q
|--------------------------|-----------------------------|
|--------------------------|-----------------------------|
|--------------------------|-----------------------------|
|--------------------------|-3-3-3-3-2-2-------------5\--|
|------------------/7\-----|-------------4-4-5-5-4-4-----|
|--------------------------|-----------------------------|


 0:21
  Gtrs I, II
  PM--------------------------------|
  E S S E E S S E S S E   S S E S S E E E E E
|-----------------------|---------------------|
|-----------------------|---------------------|
|-----------------------|---------------------|
|-----------------------|---------------------|
|-----------------------|-------------4S6-5S4-|
|-0-0-0-0-0-0-0-0-0-0-0-|-0-0-0-0-0-0-2S4-3S2-|


  PM------------------|
  E S S E E S S E S S E   S S S S S S S S S S S S  Q
|-----------------------|-------------------------------
|-----------------------|-------------------------------
|-----------------------|-------------------------------
|-----------------------|-3-3-3-3-2-2-------------[5]---
|-----------------------|-------------4-4-5-5-4-4-------
|-0-0-0-0-0-0-0-0-0-0-0-|-------------------------------


  PM--------------------------------|
  E S S E E S S E S S E   S S E S S E E E E E
|-----------------------|---------------------|
|-----------------------|---------------------|
|-----------------------|---------------------|
|-----------------------|---------------------|
|-----------------------|-------------4S6-5S4-|
|-0-0-0-0-0-0-0-0-0-0-0-|-0-0-0-0-0-0-2S4-3S2-|


  PM------------------|
  E S S E E S S E S S E   S S S S S S S S S S S S Q
|-----------------------|------------------------------|
|-----------------------|------------------------------|
|-----------------------|------------------------------|
|-----------------------|-3-3-3-3-2-2-------------5\---|
|-----------------------|-------------4-4-5-5-4-4------|
|-0-0-0-0-0-0-0-0-0-0-0-|------------------------------|


  PM--------------------------------|
  E S S E E S S E S S E   S S E S S E E E E E
|-----------------------|---------------------|
|-----------------------|---------------------|
|-----------------------|---------------------|
|-----------------------|---------------------|
|-----------------------|-------------4S6-5S4-|
|-0-0-0-0-0-0-0-0-0-0-0-|-0-0-0-0-0-0-2S4-3S2-|


  PM------------------|
  E S S E E S S E S S E   S S S S S S S S S S S S  Q
|-----------------------|-------------------------------|
|-----------------------|-------------------------------|
|-----------------------|-------------------------------|
|-----------------------|-3-3-3-3-2-2-------------[5]---|
|-----------------------|-------------4-4-5-5-4-4-------|
|-0-0-0-0-0-0-0-0-0-0-0-|-------------------------------|


  S S S S S S S S S S S S S S S S   S S S S S S S S S S S S S S S S
|---------------------------------|---------------------------------|
|---------------------------------|---------------------------------|
|---------------------------------|---------------------------------|
|-2-2-2-2-2-2-2-2-----------------|---------------------------------|
|---------------------------------|---------------------------------|
|-----------------2-2-2-2-3-3-3-3-|-5-5-5-5-3-3-3-3-2-2-2-2-3-3-2-2-|


  S S S S S S S S S S S S S S S S   S S S S S S S S S S S S Q
|---------------------------------|-----------------------------|
|---------------------------------|-----------------------------|
|---------------------------------|-----------------------------|
|-2-2-2-2-2-2-2-2-----------------|-2-2-2-2-----------------5\--|
|---------------------------------|---------4-4-4-4-5-5-5-5-----|
|-----------------2-2-2-2-3-3-3-3-|-----------------------------|


  S S S S S S S S S S S S S S S S   S S S S S S S S S S S S S S S S
|---------------------------------|---------------------------------|
|---------------------------------|---------------------------------|
|---------------------------------|---------------------------------|
|-2-2-2-2-2-2-2-2-----------------|---------------------------------|
|---------------------------------|---------------------------------|
|-----------------2-2-2-2-3-3-3-3-|-5-5-5-5-3-3-3-3-2-2-2-2-3-3-2-2-|


                                                            ~
  S S S S S S S S S S S S S S S S   S S S S S S S S S S S S Q
|---------------------------------|----------------------------|
|---------------------------------|----------------------------|
|---------------------------------|----------------------------|
|-2-2-2-2-2-2-2-2-----------------|-2-2-2-2--------------------|
|---------------------------------|---------4-4-4-4-5-5-5-5-4--|
|-----------------2-2-2-2-3-3-3-3-|----------------------------|


   0:42
    Q=190
    PM----------|           PM----------------------------------------|
    E E E E E E E E   +E  E S S E S S E S S E   S S E S S E S S E S S E
||------------------|-------------------------|--------------------------|
||o-----------------|-------------------------|--------------------------|
||------------------|-------------------------|--------------------------|
||------------------|-------------------------|--------------------------|
||o-0-1-0-1-0-1-0---|-------------------------|--------------------------|
||----------------3-|-(3)-1-0-0-0-0-0-0-0-0-0-|-0-0-0-0-0-0-0-0-0-0-0-0--|


  PM--------------------------------------|
  S S E S S E S S E S S E  4x E E E E E E E E
|--------------------------||-----------------|
|-------------------------o||-----------------|
|--------------------------||-----------------|
|--------------------------||-----------------|
|-------------------------o||-0-1-0-1-0-1-0---|
|-0-0-0-0-0-0-0-0-0-0-0-0--||---------------3-|


 1:03
 4/4
  Gtr I
                            PM----|                               PM----|
  E E E E E E E E   E E E E E E E E   E E   E E E E E E   E E E E E E E E
|-----------------|-----------------|-------------------|------------------|
|-----------------|-----------------|-------------------|------------------|
|-----------------|-----------------|-------------------|------------------|
|-4-5-4-2-4-2-4-2-|-4-5-4-2-4-2-4-2-|-4-5---4-2-4-2-4-2-|-4-5-4-2-4-2-4-2--|
|-----------------|-----------------|-------------------|------------------|
|-----------------|-----------------|-------------------|------------------|
|
| Gtr II
| W                 E E E E E E E E   E H..               E E E E E E E E
|-----------------|-----------------|-------------------|------------------|
|-----------------|-----------------|-------------------|------------------|
|-----------------|-----------------|-------------------|------------------|
|-----------------|-----------------|-------------------|------------------|
|-----------------|-----------------|-------------------|------------------|
|-----------------|-2-3-2-0-2-0-2-0-|-2-----------------|-2-3-2-0-2-0-2-0--|


                            PM----|
  E E E E E E E E   E E E E E E E E
|-----------------|-----------------|
|-----------------|-----------------|
|-----------------|-----------------|
|-4-5-4-2-4-2-4-2-|-4-5-4-2-4-2-4-2-|
|-----------------|-----------------|
|-----------------|-----------------|
|
|   PM----------|
| E E E E E E E E   E E E E E E E E
|-----------------|-----------------|
|-----------------|-----------------|
|-----------------|-----------------|
|-----------------|-----------------|
|-----------------|-----------------|
|-2-0-0-0-0-0-0-0-|-2-3-2-0-2-0-2-0-|


                    PM----------------------------|
  E E E E E E E E   S S S S S S S S S S S S S S S S
|-----------------|----------------------------------|
|-----------------|----------------------------------|
|-----------------|----------------------------------|
|-4-5-4-2-4-2-4-2-|----------------------------------|
|-----------------|-----------------2-2-2-2-0-0-0-0--|
|-----------------|-2-2-2-2-0-0-0-0------------------|
|
| PM------------|
| E E E E E E E E   E   E   E   E   E   E   E   E
|-----------------|----------------------------------|
|-----------------|----------------------------------|
|-----------------|----------------------------------|
|-----------------|----------------------------------|
|-----------------|----------------------------------|
|-0-0-0-0-0-0-0-0-|-2---3---2---0---2---0---2---0----|


    PM----------------------------|
    E E E E E E E E   E E E E E E E E
||------------------|------------------||-|
||o-----------------|-----------------o||-|
||------------------|------------------||-|
||------------------|------------------||-|
||o-----------------|-0-1-0-1-0-1-0-1-o||-|
||--0-0-0-0-0-0-0-0-|------------------||-|


    PM--------------------------------------------|
    S S S S S S S S S S S S S S S S   E E E E E E E E
||----------------------------------|--------------------||
||o---------------------------------|-------------------o||
||----------------------------------|--------------------||
||----------------------------------|--------------------||
||o---------------------------------|-0-1-0-1-0-1-0-1---o||
||--0-0-0-0-0-0-0-0-0-0-0-0-0-0-0-0-|--------------------||


                                    PM----------|
  S S S S S S S S S S S S S S S S   E E E E E E E E
|---------------------------------|-----------------|
|---------------------------------|-----------------|
|---------------------------------|-----------------|
|-2-2-2-2-2-2-2-2-2-2-2-2-2-2-2-2-|-----------------|
|---------------------------------|-0-1-0-1-0-1-0-1-|
|---------------------------------|-----------------|


 1:25
  Q=240
  Gtr I
  PM------------------|
  E S S E E S S E S S E   S S S S S S S S S S S S Q
|-----------------------|-----------------------------|
|-----------------------|-----------------------------|
|-----------------------|-----------------------------|
|-----------------------|-3-3-3-3---------2-2-2-2-5\--|
|-----------------------|---------5-5-5-5-------------|
|-0-0-0-0-0-0-0-0-0-0-0-|-----------------------------|
|
| Gtr II
| W                       W
|-----------------------|-----------------------------|
|-----------------------|-----------------------------|
|-----------------------|-----------------------------|
|-----------------------|-----------------------------|
|-----------------------|-----------------------------|
|-----------------------|-----------------------------|


  Gtrs I, II
  PM--------------------|
  E S S S S E S S E S S E   S S E S S E S S E S S E
|-------------------------|-------------------------|
|-------------------------|-------------------------|
|-------------------------|-------------------------|
|-------------------------|-------------------------|
|-------------------------|-------------------------|
|-0-0-0-0-0-0-0-0-0-0-0-0-|-4-4-4-2-2-2-3-3-3-0-0-0-|


  PM--------------------|
  E S S S S E S S E S S E   S S S S S S S S S S S S Q
|-------------------------|-----------------------------
|-------------------------|-----------------------------
|-------------------------|-----------------------------
|-------------------------|-3-3-3-3---------2-2-2-2-----
|-------------------------|---------5-5-5-5---------5---
|-0-0-0-0-0-0-0-0-0-0-0-0-|-----------------------------


  PM--------------------|
  E S S S S E S S E S S E   S S E S S E S S E S S E
|-------------------------|-------------------------|
|-------------------------|-------------------------|
|-------------------------|-------------------------|
|-------------------------|-------------------------|
|-------------------------|-------------------------|
|-0-0-0-0-0-0-0-0-0-0-0-0-|-4-4-4-2-2-2-3-3-3-0-0-0-|


  PM--------------------|
  E S S S S E S S E S S E   S S S S S S S S S S S S Q
|-------------------------|------------------------------|
|-------------------------|------------------------------|
|-------------------------|------------------------------|
|-------------------------|-3-3-3-3---------2-2-2-2------|
|-------------------------|---------5-5-5-5---------5\---|
|-0-0-0-0-0-0-0-0-0-0-0-0-|------------------------------|


  S S S S S S S S S S S S S S S S   S S S S S S S S S S S S S S S S
|---------------------------------|---------------------------------|
|---------------------------------|---------------------------------|
|---------------------------------|---------------------------------|
|-2-2-2-2-2-2-2-2-----------------|---------------------------------|
|---------------------------------|---------------------------------|
|-----------------2-2-2-2-3-3-3-3-|-5-5-5-5-3-3-3-3-2-2-2-2-3-3-2-2-|


  S S S S S S S S S S S S S S S S   S S S S S S S S S S S S Q
|---------------------------------|-----------------------------|
|---------------------------------|-----------------------------|
|---------------------------------|-----------------------------|
|-2-2-2-2-2-2-2-2-----------------|-2-2-2-2-----------------5\--|
|---------------------------------|---------4-4-4-4-5-5-5-5-----|
|-----------------2-2-2-2-3-3-3-3-|-----------------------------|


  S S S S S S S S S S S S S S S S   S S S S S S S S S S S S S S S S
|---------------------------------|---------------------------------|
|---------------------------------|---------------------------------|
|---------------------------------|---------------------------------|
|-2-2-2-2-2-2-2-2-----------------|---------------------------------|
|---------------------------------|---------------------------------|
|-----------------2-2-2-2-3-3-3-3-|-5-5-5-5-3-3-3-3-2-2-2-2-3-3-2-2-|


                                                            ~
  S S S S S S S S S S S S S S S S   S S S S S S S S S S S S Q
|---------------------------------|----------------------------|
|---------------------------------|----------------------------|
|---------------------------------|----------------------------|
|-2-2-2-2-2-2-2-2-----------------|-2-2-2-2--------------------|
|---------------------------------|---------4-4-4-4-5-5-5-5-4--|
|-----------------2-2-2-2-3-3-3-3-|----------------------------|


 1:42
  Q=220
  PM--|    PM--|       PM--------|      PM--|    PM--|       PM--------|
  S S E Q  S S E Q     E E E E E E Q    S S E Q  S S E Q     E E E E E E Q
|--------------------|----------------|--------------------|----------------|
|--------------------|----------------|--------------------|----------------|
|--------------------|----------------|--------------------|----------------|
|-------2--------5\--|----------------|-------2--------5\--|-------------5--|
|--------------------|-2-3---------2--|--------------------|-2-3---------3--|
|-0-0-0----0-0-0-----|-----3-2-3-2-0--|-0-0-0----0-0-0-----|-----3-2-2-0----|


  PM--|    PM--|       PM--------|      PM--|    PM--|
  S S E Q  S S E Q     E E E E E E Q    S S E Q  S S E Q
|--------------------|----------------|--------------------|
|--------------------|----------------|--------------------|
|--------------------|----------------|--------------------|
|-------2--------5\--|----------------|-------2--------5\--|
|--------------------|-2-3---------2--|--------------------|
|-0-0-0----0-0-0-----|-----3-2-3-2-0--|-0-0-0----0-0-0-----|


 1:49
  Gtrs I, II
  PM-------------------------|
  E    E     E    E     E    E     Q
|------------------------------------------|
|------------------------------------------|
|------------------------------------------|
|----------------------------------5-------|
|-2----3---------------------------3-------|
|------------3----2-----2----0-------------|
|
| Gtr III
| PM------------------------------------|
| |---3---|  |---3---|  |---3---|  |--3--|
| E  E    E  E  E    E  E  E    E  E  E  E
|------------------------------------------|
|----------------------10-12---13-12-13-15-|
|-9-11---12-11-12---14---------------------|
|------------------------------------------|
|------------------------------------------|
|------------------------------------------|


        PM|    PM---------------------------------|
   E    E E E  E     E  E  E    E  E  E  E  E E E E
|----------------------------|----------------------|
|----------------------------|----------------------|
|----------------------------|----------------------|
|--3--------4----------------|----------------------|
|--1--------2----------------|--2-----------2-------|
|-------0-0----0-----0--0--0-|-----3--2--0----3-2-0-|
|
|                                           ~~
|  H           Q        E  E    E  E  E  E  H
|-12----------12-------------|----------------------|
|-14b17r======14pb16---15-14-|-15-14-15-------------|
|----------------------------|----------15-14-------|
|----------------------------|----------------------|
|----------------------------|----------------------|
|----------------------------|----------------------|


           PM------|                PM-------------------------------
   E       E       E       E        E       E       E       E
|-------------------------------------------------------------------|
|-------------------------------------------------------------------|
|-------------------------------------------------------------------|
|--3----------------------------------------------------------------|
|--1-----------------------4----------------------------------------|
|----------0-------0-------2--------0-------0-------0-------0-------|
|
|  |-------------9:8-------------|  |-------------9:8-------------|
|  S  S  S    S  S    S  S    S  S  S  S  S    S  S    S  S    S  S
|-------------------------------------------------------------------|
|-12-12-12---11-11---11------------11-11-11-------------------------|
|-----------------------12---12-12------------12-12---12-11---11-11-|
|-------------------------------------------------------------------|
|-------------------------------------------------------------------|
|-------------------------------------------------------------------|


 ---------------------------------------|
   E       E          E        E  E E E E
|------------------------------------------|
|------------------------------------------|
|------------------------------------------|
|------------------------------------------|
|--2------------------------------2--------|
|----------3----------2--------0----3-2-0--|
|
|  |----------8:6-----------|
|  S  S  S    S  S  S    S  S  E  H
|------------------------------------------|
|------------------------------------------|
|-12-12-12---11-11-11---12-12--------------|
|-----------------------------13-12--------|
|------------------------------------------|
|------------------------------------------|


    PM|   PM----------------------|
  E E E E E E E E   E E E E E E E E
|-----------------|-----------------|
|-----------------|-----------------|
|-----------------|-----------------|
|-3-----4---------|-----------------|
|-1-----2---------|-2-------2-------|
|---0-0---0-0-0-0-|---3-2-0---3-2-0-|
|
| ~~~~~~~~~~~~~~~~~~~~~~~~~~~~~~~~~~~
| W                 W
|-----------------|-----------------|
|-----------------|-----------------|
|-----------------|-----------------|
|-----------------|-----------------|
|-----------------|-----------------|
|-1---------------|-3---------------|


    PM|   PM-------------------------------|
  E E E E E E E E    E    E E E  E     E E E
|-----------------|--------------------------|
|-----------------|--------------------------|
|-----------------|--------------------------|
|-3-----4---------|--------------------------|
|-1-----2---------|--2-----------2-----------|
|---0-0---0-0-0-0-|-------3-2-0--------3-2-0-|
|
|~~~
| W                  H           H
|-----------------|-13b15-------13pb15-------|
|-----------------|--------------------------|
|-----------------|--------------------------|
|-----------------|--------------------------|
|-----------------|--------------------------|
|-3---------------|--------------------------|


  Q=130
                                   PM--------------------------|
  W             W               Q  E E E E E E   E E E E E E E E
|-----------|---------------|------------------|-----------------|
|-----------|---------------|------------------|-----------------|
|-----------|---------------|------------------|-----------------|
|-----------|---------------|---1--------------|-----------------|
|-2---------|---2-----------|---1--------------|-----------------|
|-0---------|---0-----------|------2-3-2-3-2-0-|-2-3-2-0-2-3-2-0-|
|
| \2
|               ~~~~~~~~~~~~~~~~~~
| W             H      H        W                W
|-----------|---------------|------------------|-----------------|
|-----------|-/12----/12----|-/12--------------|-----------------|
|-----------|---------------|------------------|-----------------|
|-----------|---------------|------------------|-----------------|
|-----------|---------------|------------------|-----------------|
|-0---------|---------------|------------------|-----------------|


     PM------------------------------|
  Q  E E E E E E    E    E E E E E E E   E E H    Q
|----------------|---------------------|--------------|
|----------------|---------------------|--------------|
|----------------|---------------------|--------------|
|-2--------------|---------------------|-3------------|
|-0--------------|---------------------|-1-4----------|
|----2-3-2-3-2-0-|--2----3-2-0-2-3-2-0-|---2------7\--|
|
|                   ~~~~~~
| W                 W                    W
|----------------|-24b26r==============|==============|
|----------------|---------------------|--------------|
|----------------|---------------------|--------------|
|----------------|---------------------|--------------|
|----------------|---------------------|--------------|
|----------------|---------------------|--------------|


  Gtrs I, II
  PM--------|           PM----------------------------------|
                                      |----6----| |----6----|
  E E E E E E Q     E E E E E E E E   E E E E E E E E E E E E
|-----------------|-----------------|-------------------------|
|-----------------|-----------------|-------------------------|
|-----------------|-----------------|-------------------------|
|-----------------|-----------------|-------------------------|
|-----------------|-5-4-------------|-1-1-1-1-1-1-------------|
|-2-3-2-0-2-3-5\--|-3-2-2-3-2-3-2-0-|-------------3-3-3-3-3-3-|


   2:15
    Q=200
   12/8
        PM----------------|
    E E E E E E E E E E E E  3x
||---------------------------||
||o-------------------------o||
||---------------------------||
||---------------------------||
||o-8-7---------------------o||
||--6-5-4-2-3-4-5-4-3-2-3-4--||


      PM------------|            PM----------------|
  E E E E E E E E E E Q      E E E E E E E E E E E E   4x
|------------------------||----------------------------||
|------------------------||o--------------------------o||
|------------------------||----------------------------||
|------------------------||----------------------------||
|-8-7---------------8----||o-8-7----------------------o||
|-6-5-4-2-3-4-5-4-3-6----||--6-5-4-2-3-4-5-4-3-2-3-4---||


   4/4                                  3/4
             PM--------------------|
    Q  Q  Q  E E   E E E E E E S S E  4x Q  Q  Q
||---------------|--------------------||----------|
||o--------------|-------------------o||----------|
||---------------|--------------------||----------|
||--4------------|--------------------||-4--------|
||o-2--5--4------|-------------------o||-2--5--4--|
||-----3--2--0-0-|-0-0-0-0-0-0-0-0-0--||----3--2--|


    Q=220
   4/4
    PM--------------------------------------|    PM
    S S S S S S S S S S S S S S S S   S S S S Q  Q  Q
||----------------------------------|------------------|
||o---------------------------------|------------------|
||----------------------------------|------------------|
||----------------------------------|---------4--------|
||o---------------------------------|---------2-----4--|
||--0-0-0-0-2-2-2-2-3-3-3-3-2-2-2-2-|-0-0-0-0----0--2--|


  PM--------------------------------------|    PM
  S S S S S S S S S S S S S S S S   S S S S Q  Q  Q
|---------------------------------|---------------------||
|---------------------------------|--------------------o||
|---------------------------------|---------------------||
|---------------------------------|---------5-----------||
|-2-2-2-2-4-4-4-4-5-5-5-5-4-4-4-4-|-2-2-2-2-3-----4----o||
|---------------------------------|------------0--2-----||


    PM--------------------|              PM--------------|
    E E E E E E E E   S S E Q  Q  Q   3x E E E E E E S S E   E E Q  Q  Q
||------------------|-----------------||-------------------|---------------|
||o-----------------|----------------o||-------------------|---------------|
||------------------|-----------------||-------------------|---------------|
||------------------|-------4---------||-------------------|-4-------------|
||o-----------------|-------2--5--4--o||-------------------|-2-3----3------|
||--0-0-0-0-0-0-0-0-|-0-0-0----3--2---||-0-0-0-0-0-0-0-0-0-|---1----1------|


  Q=200
  PM------------------|    PM      PM------------------|
  E E E E E E E E   E E Q  Q  Q    E E E E E E E E   E E Q  Q  Q
|-----------------|--------------|-----------------|--------------|
|-----------------|--------------|-----------------|--------------|
|-----------------|--------------|-----------------|--------------|
|-----------------|-----4--------|-----------------|-----4--------|
|-----------------|-----2-----4--|-----------------|-----2--3--3--|
|-0-0-0-0-0-0-0-0-|-0-0----0--2--|-0-0-0-0-0-0-0-0-|-0-0----1--1--|


 2:59
  Q=240
  Gtr I
  W             W
|-------------|-----------------------------|
|-------------|-----------------------------|
|-------------|-----------------------------|
|-------------|-----------------------------|
|-------------|-----------------------------|
|-------------|-----------------------------|
|
| Gtr II
| H     H       S S S S S S S S S S S S Q
|-------------|-----------------------------|
|-------------|-----------------------------|
|-------------|-----------------------------|
|-------------|-2-2-2-2-----------------5\--|
|------/7\----|---------5-5-4-4-5-5-4-4-----|
|-------------|-----------------------------|


  Gtrs I, II
  PM--------------------|
  E S S S S E S S E S S E   S S E S S E S S E S S E
|-------------------------|-------------------------|
|-------------------------|-------------------------|
|-------------------------|-------------------------|
|-------------------------|-------------------------|
|-------------------------|-------------------------|
|-0-0-0-0-0-0-0-0-0-0-0-0-|-4-4-4-2-2-2-3-3-3-0-0-0-|


  PM--------------------|
  E S S S S E S S E S S E   S S S S S S S S S S S S Q
|-------------------------|-----------------------------
|-------------------------|-----------------------------
|-------------------------|-----------------------------
|-------------------------|-3-3-3-3---------2-2-2-2-----
|-------------------------|---------5-5-5-5---------5---
|-0-0-0-0-0-0-0-0-0-0-0-0-|-----------------------------


  PM--------------------|
  E S S S S E S S E S S E   S S E S S E S S E S S E
|-------------------------|-------------------------|
|-------------------------|-------------------------|
|-------------------------|-------------------------|
|-------------------------|-------------------------|
|-------------------------|-------------------------|
|-0-0-0-0-0-0-0-0-0-0-0-0-|-4-4-4-2-2-2-3-3-3-0-0-0-|


  PM--------------------|
  E S S S S E S S E S S E   S S S S S S S S S S S S  Q
|-------------------------|-------------------------------|
|-------------------------|-------------------------------|
|-------------------------|-------------------------------|
|-------------------------|-3-3-3-3---------2-2-2-2-------|
|-------------------------|---------5-5-5-5---------[5]---|
|-0-0-0-0-0-0-0-0-0-0-0-0-|-------------------------------|


  PM--------------------|
  E S S S S E S S E S S E   S S E S S E S S E S S E
|-------------------------|-------------------------|
|-------------------------|-------------------------|
|-------------------------|-------------------------|
|-------------------------|-------------------------|
|-------------------------|-------------------------|
|-0-0-0-0-0-0-0-0-0-0-0-0-|-4-4-4-2-2-2-3-3-3-0-0-0-|


  PM--------------------|
  E S S S S E S S E S S E   S S S S S S S S S S S S Q
|-------------------------|-----------------------------|
|-------------------------|-----------------------------|
|-------------------------|-----------------------------|
|-------------------------|-3-3-3-3---------2-2-2-2-----|
|-------------------------|---------5-5-5-5---------5---|
|-0-0-0-0-0-0-0-0-0-0-0-0-|-----------------------------|


  S S S S S S S S S S S S S S S S   S S S S S S S S S S S S S S S S
|---------------------------------|---------------------------------|
|---------------------------------|---------------------------------|
|---------------------------------|---------------------------------|
|-2-2-2-2-2-2-2-2-----------------|---------------------------------|
|---------------------------------|---------------------------------|
|-----------------2-2-2-2-3-3-3-3-|-5-5-5-5-3-3-3-3-2-2-2-2-3-3-2-2-|


  S S S S S S S S S S S S S S S S   S S S S S S S S S S S S Q
|---------------------------------|-----------------------------|
|---------------------------------|-----------------------------|
|---------------------------------|-----------------------------|
|-2-2-2-2-2-2-2-2-----------------|-2-2-2-2-----------------5\--|
|---------------------------------|---------4-4-4-4-5-5-5-5-----|
|-----------------2-2-2-2-3-3-3-3-|-----------------------------|


  S S S S S S S S S S S S S S S S   S S S S S S S S S S S S S S S S
|---------------------------------|---------------------------------|
|---------------------------------|---------------------------------|
|---------------------------------|---------------------------------|
|-2-2-2-2-2-2-2-2-----------------|---------------------------------|
|---------------------------------|---------------------------------|
|-----------------2-2-2-2-3-3-3-3-|-5-5-5-5-3-3-3-3-2-2-2-2-3-3-2-2-|


                                                            ~
  S S S S S S S S S S S S S S S S   S S S S S S S S S S S S Q
|---------------------------------|----------------------------|
|---------------------------------|----------------------------|
|---------------------------------|----------------------------|
|-2-2-2-2-2-2-2-2-----------------|-2-2-2-2--------------------|
|---------------------------------|---------4-4-4-4-5-5-5-5-4--|
|-----------------2-2-2-2-3-3-3-3-|----------------------------|


   3:19
    Q=190
    PM----------|           PM----------------------------------------|
    E E E E E E E E   +E  E S S E S S E S S E   S S E S S E S S E S S E
||------------------|-------------------------|--------------------------|
||o-----------------|-------------------------|--------------------------|
||------------------|-------------------------|--------------------------|
||------------------|-------------------------|--------------------------|
||o-0-1-0-1-0-1-0---|-------------------------|--------------------------|
||----------------3-|-(3)-1-0-0-0-0-0-0-0-0-0-|-0-0-0-0-0-0-0-0-0-0-0-0--|


  PM--------------------------------------|
  S S E S S E S S E S S E  4x E E E E E E E E
|--------------------------||-----------------|
|-------------------------o||-----------------|
|--------------------------||-----------------|
|--------------------------||-----------------|
|-------------------------o||-0-1-0-1-0-1-0---|
|-0-0-0-0-0-0-0-0-0-0-0-0--||---------------3-|


 3:36
 4/4
  Gtr I
  PM-------------------------------------
  S S E Q  S S E Q    S S E Q  S S E Q
|-------------------|-------------------|
|-------------------|-------------------|
|-------------------|-------------------|
|-------------------|-------------------|
|-------------------|-------------------|
|-0-0-0----0-0-0----|-0-0-0----0-0-0----|
|
| Gtr II
|       PM-------------------------------
| Q     Q  Q     Q    Q     Q  Q     Q
|-------------------|-------------------|
|-------------------|-------------------|
|-------------------|-------------------|
|-------------------|-------------------|
|-------4--------4--|-------4--------4--|
|-------2--------2--|-------2--------2--|


 -----------------------------------|
  S S E Q  S S E Q    E E E E E E E E
|-------------------|-------------------*|
|-------------------|-------------------*|
|-------------------|-------------------*|
|-------------------|-------------------*|
|-------------------|-0-1-0-1-0-1-0-1---*|
|-0-0-0----0-0-0----|-------------------*|
|
|-----------------------------------|
| Q     Q  Q     Q    E E E E E E E E
|-------------------|-------------------*|
|-------------------|-------------------*|
|-------------------|-------------------*|
|-------------------|-------------------*|
|-------4--------4--|-0-1-0-1-0-1-0-1---*|
|-------2--------2--|-------------------*|

Duration Legend
---------------
W - whole; H - half; Q - quarter; E - 8th; S - 16th;
T - 32nd; X - 64th; a - acciaccatura
+ - note tied to previous; . - note dotted; .. - note double dotted
Uncapitalized letters represent notes that are staccato (1/2 duration)
Irregular groupings are notated above the duration line
Duration letters will always appear directly above the note/fret number it
represents the duration for.  Duration letters with no fret number below them
represent rests.  Multi-bar rests are notated in the form Wxn, where n is the
number of bars to rest for.  Low melody durations appear below the staff

Tablature Legend
----------------
 h   - hammer-on
 p   - pull-off
 b   - bend
 pb  - pre-bend
 r   - bend release (if no number after the r, then release immediately)
 /  - slide into or out of (from/to "nowhere")
 s   - legato slide
 S   - shift slide
<n>  - natural harmonic
[n]  - artificial harmonic
n(n) - tapped harmonic
 ~   - vibrato
 tr  - trill
 T   - tap
 TP  - trem. picking
 PM  - palm muting
n/  - tremolo bar dip; n = amount to dip
 n  - tremolo bar down
 n/  - tremolo bar up
/n  - tremolo bar inverted dip
 =   - hold bend; also acts as connecting device for hammers/pulls
 <>  - volume swell (louder/softer)
 x   - on rhythm slash represents muted slash
 o   - on rhythm slash represents single note slash

Misc Legend
-----------
 |  - bar
||  - double bar
||o - repeat start
o|| - repeat end
*|  - double bar (ending)
 :  - bar (freetime)
 $  - Segno
 &  - Coda
Tempo markers - <E/E./Q/Q./H/H.> = BPM(8/16=s8/s16), where s8 = swing 8ths,
s16 = swing 16ths

  Visit MetalTabs.com for more metal tablature

bottom separator

Contact Us | Privacy Policy | Disclaimer | Legal Notice
Copyright © 2001-2014 MetalTabs.com. All Rights Reserved.