top separator

Home

Forum

What's New

Submit a Tab

FAQ

Links

Contact Us

Link to Us

MuSpy.com

MetalTabs.com logo

Bands

0-9

A

B

C

D

E

F

G

H

I

J

K

L

M

N

O

P

Q

R

S

T

U

V

W

X

Y

Z

Search

What

Where
 

Ivory Knight - "The Unseen Enemy" Guitar Tab

Plain Text Version
More Ivory Knight Tabs

Hits: 1895
Updated: 2005-03-16 13:31:24

 

By:

blackjacques

sendpm.gif

email.gif

Important note
This tab is available online because we obtained explicit permission from Ivory Knight or their label.


#----------------------------------PLEASE NOTE---------------------------------#
#This file is the author's own work and represents their interpretation of the #
#song. You may only use this file for private study, scholarship, or research. #
#Unless specified otherwise, this is NOT an official tab from the band members.#
#------------------------------------------------------------------------------#

  Visit MetalTabs.com for more metal tablature
  
Band:  Ivory Knight
Song:  The Unseen Enemy
Album: Unconscience
Unconscience was mixed and mastered by Jeff Waters of Annihilator fame.
The artwork was done by acclaimed artist Gyula Havanscak, who also did
Annihilator's "All for You" album.
Both Unconscience and Ivory Knight's debut album "Up from the Ashes"
are available at CD Baby:  http://www.cdbaby.com/cd/ivoryknight2

Copyright (c)  2004
Version 1.0 - Feb 25, 2005

Transcribed By: Rob Gravelle
Email:          blackjacques@musician.org


.  - palm mute           /  - slide up to
\  - slide down to       ~  - vibrato
h  - hammer on           b  - Bend
p  - pull off            Suffixes for bend
t  - tap                 f  - full bend    h - half bend
ph - pinched harmonic    q  - quarter bend t - tap bend
*  - see comment         ^  - Hold bend    r release bend
x  - Stuccatto           ~  - vibrato bend
,  - slight palm mute    () - ghost note, sustained note
"  - tremolo note        <> - Trill

Tunning E A D G B E

156 Bpm - Heavy (with aggression!)

Rhythm Guitar
E||--------------------------|-------------------------|
B||--------------------------|-------------------------|
G||--------9--------------9--|--------------9----------|
D||--------9-----5--------9--|-----5--------9-----5----|
A||--------7-----5--------7--|-----5--------7-----5----|
E||--0--0-----0--3--0--0-----|--0--3--0--0-----0--3----|



--------------------------|--------------------------|
--------------------------|--------------------------|
--------------------------|--------------------------|
--5-----------------------|--------------------------|
--5-----2--------2-----2--|--------------8--7--5--7--|
--3--0--0--0--0--0--0--0--|--6--5--3--5--------------|



--------------------------|--------------------------|
--------------------------|--------------------------|
--------9--------------9--|--------------9-----10----|
--------9-----5--------9--|-----5--------9-----10----|
--------7-----5--------7--|-----5--------7-----8-----|
--0--0-----0--3--0--0-----|--0--3--0--0-----0--------|



|---------------------------|--------------------------|
|---------------------------|--------------------------|
|--10--9--------9-----7-----|--------------------------|
|--10--9--------9-----7--8--|--------------------------|
|--8---7--------7-----5--8--|--------------------------|
|---------0--0-----0-----6--|----6--5--3--0--3--5-5-3--|
|                                                      |
|Lead Guitar             harmonic whammy dive          |
|---------------------------|--------------------------|
|------------------------5\-|--------------------------|
|------------------------5\-|--------------------------|
|---------------------------|--------------------------|
|---------------------------|--------------------------|
|---------------------------|--------------------------|



|---------------------------|-------------------------|
|---------------------------|-------------------------|
|--------9---------------9--|--------------9----------|
|--------9-----5---------9--|-----5--------9-----5----|
|--------7-----5---------7--|-----5--------7-----5----|
|--0--0-----0--3--0-0-0-----|--0--3--0--0-----0--3----|
|                                                     |
|                                                     |
|---------------------------|-------------------------|
|--14b-----------14-12-14b--|--------14-12------------|
|---------------------------|--------------15~--------|
|---------------------------|-------------------------|
|---------------------------|-------------------------|
|---------------------------|-------------------------|



|--------------------------------------------------|
|--------------------------------------------------|
|--------------------------------------------------|
|--5-----------------------5-----2-----0-----2-----|
|--5-----------------------5-----2-----0-----2-----|
|--3-----0-----0-----0-----------------------------|
|                                                  |
|                                                  |
|--------------------------------------------------|
|--12-13-12----------12-13-12----------12-13-12----|
|-----------15-14-15----------15-14-15----------15-|
|--------------------------------------------------|
|--------------------------------------------------|
|--------------------------------------------------|



|-------------------------------------|--------------------------------|
|-------------------------------------|--------------------------------|
|-------------------------------------|--------9--------------9--------|
|-------------------------------------|--------9-----5--------9--------|
|--------------------------8--7--5--7-|--------7-----5--------7--------|
|--6-----5-----3-----5----------------|--0--0-----0--3--0--0-----------|
|                                                                      |
|                                        2 steps                       |
|-------------------------------------|--------------------------15p14-|
|-------------------------------------|--20b---------------------------|
|--16-15-16-15-14---------------------|--------------------------------|
|-----------------17-16-15-16---------|--------------------------------|
|-------------------------------------|--------------------------------|
|-------------------------------------|--------------------------------|



|---------------------------------------|-------------------------------------|
|---------------------------------------|-------------------------------------|
|------------------------------9--10----|10---9----------9-------7------------|
|--------5---------------------9--10----|10---9----------9-------7----8-------|
|--------5---------------------7--8-----|8----7----------7-------5----8-------|
|--0-----3-----0-----0-----0------------|---------0---0-------0-------6-------|
|                                                                             |
|                                                                             |
|--15p14--------------------------------|-------------------------------------|
|--------17p15-17p15--------------------|-------------------------------------|
|--------------------17p16p14-----------|---------------------7h10p7----------|
|-----------------------------12--14----|-----------6h9p6---8------------6h9p6|
|---------------------------------------|--5h8p5--7--------------------7------|
|-------------------------------------0-|6------------------------------------|
|                                                                             |
|Harmony Lead                                                                 |
|---------------------------------------|-------------------------------------|
|---------------------------------------|-------------------------------------|
|---------------------------------------|--------------------10h15p10---------|
|---------------------------------------|-----------9h14p9-12-----------9h14p9|
|---------------------------------------|--8h13p8-11------------------11------|
|-------------------------------------4-|10-----------------------------------|


                                                       1st Verse
|-----------------------------------------------------|-----------------------|
|-----------------------------------------------------|-----------------------|
|-----------------------------------------------------|-------9--------------9|
|-----------------------------------------------------|-------9-----5--------9|
|-----------------------------------------------------|-------7-----5--------7|
|---------6----5----3----0-----------3--------5--5--3-|-0--0-----0--3--0--0---|
|                                                                             |
|                                                                             |
|--------------------------------10h13p10-13p10-------|-12~-------------------|
|-----------------9-h12-p9----11----------------11----|-----------------------|
|----7h--10p7--9-----------10----------------------10-|-----------------------|
|--8--------------------------------------------------|-----------------------|
|-----------------------------------------------------|-----------------------|
|-----------------------------------------------------|-----------------------|
|                                                                             |
|                                                                             |
|-----------------------------------------------------|-----------------------|
|-----------------12h17p12-------11h15p11-15p11-------|-12~-------------------|
|-----10h15p10-13-------------10----------------10----|-----------------------|
|--12----------------------12----------------------12-|-----------------------|
|-----------------------------------------------------|-----------------------|
|-----------------------------------------------------|-----------------------|



-------------------------|--------------------------|
-------------------------|--------------------------|
--------------9----------|--------------------------|
-----5--------9-----5----|--5-----------------------|
-----5--------7-----5----|--5--------------2-----2--|
--0--3--0--0-----0--3----|--3--0--0--0--0--0--0--0--|



--------------------------|--------------------------|
--------------------------|--------------------------|
--------------------------|--------9--------------9--|
--------------------------|--------9-----5--------9--|
--------------8--7--5--7--|--------7-----5--------7--|
--6--5--3--5--------------|--0--0-----0--3--0--0-----|



--------------------------|---------------------------|
--------------------------|---------------------------|
--------------9-----10----|--10--9--------------------|
-----5--------9-----10----|--10--9--------------------|
-----5--------7-----8-----|--8---7--------7-----5-----|
--0--3--0--0-----0--------|---------0--0-----0-----6--|



--------------------------|--------------------------|-------------------------|
--------------------------|--------------------------|-------------------------|
--------------------------|--------9--------------9--|--------------9----------|
--------------------------|--------9-----5--------9--|-----5--------9-----5----|
--------------------------|--------7-----5--------7--|-----5--------7-----5----|
----6--5--3--0--3--5-5-3--|--0--0-----0--3--0--0-----|--0--3--0--0-----0--3----|



--------------------------|--------------------------|
--------------------------|--------------------------|
--------------------------|--------------------------|
--5-----0--2--5--2--0--2--|--------------------------|
--5--2--0--2--5--2--0--2--|--------------8--7--5--7--|
--3--0--------------------|--6--5--3--5--------------|



--------------------------|--------------------------|
--------------------------|--------------------------|
--------9--------------9--|--------------9-----10----|
--------9-----5--------9--|-----5--------9-----10----|
--------7-----5--------7--|-----5--------7-----8-----|
--0--0-----0--3--0--0-----|--0--3--0--0-----0--------|



---------------------------|-------------------------|
---------------------------|-------------------------|
--10--9--------9-----------|-------------------------|
--10--9--------9-----------|-------------------------|
--8---7--------7-----5-----|-------------------------|
---------0--0-----0-----6--|----6--5--3--0--3--5--6--|


Pre-Chorus
------------------------------|-------------------------|
------------------------------|-------------------------|
------------------------------|-------------------------|
------------------------------|----------3/-2-----------|
--9---9--9---9--9----------8--|-------4--------3-----3--|
--7h8p7--7h8p7--7--7-7-7-7-6--|----6--------------5-----|



------------------------------|-------------------------|
------------------------------|-------------------------|
------------------------------|-------------------------|
------------------------------|----------4/-5-----------|
--9---9--9---9--9----------8--|-------5--------7-----7--|
--7h8p7--7h8p7--7--7-7-7-7-6--|----7--------------8-----|



------------------------------|--------------------------|
------------------------------|--------------------------|
------------------------------|--------------------------|
------------------------------|----------5/-7------------|
--9---9--9---9--9----------8--|-------7--------8------8--|
--7h8p7--7h8p7--7--7-7-7-7-6--|----8--------------10-----|



-----------------------------|-------------------------|
-----------------------------|-------------------------|
-----------------------------|-------------------------|
-----------------------------|-------------------------|
--9---9--9---9----9---9---8--|----8--8--8--8--8--10----|
--7h8p7--7h8p7----7h8p7-7-6--|----6--6--6--6--6--8-----|


2nd Verse
--------------------------|-------------------------|--------------------------|
--------------------------|-------------------------|--------------------------|
--------9--------------9--|--------------9----------|--------------------------|
--------9-----5--------9--|-----5--------9-----5----|--5-----------5--2--0--2--|
--------7-----5--------7--|-----5--------7-----5----|--5-----------5--2--0--2--|
--0--0-----0--3--0--0-----|--0--3--0--0-----0--3----|--3--0--0--0--------------|



--------------------------|--------------------------|
--------------------------|--------------------------|
--------------------------|--------9--------------9--|
--------------------------|--------9-----5--------9--|
--------------8--7--5--7--|--------7-----5--------7--|
--6--5--3--5--------------|--0--0-----0--3--0--0-----|



--------------------------|--------------------------|------------------------|
--------------------------|--------------------------|------------------------|
--------------9-----10----|--10--9-------------------|------------------------|
-----5--------9-----10----|--10--9-----------9----9--|------------------------|
-----5--------7-----8-----|--8---7-----------7----7--|----8--7----7--5--7--5--|
--0--3--0--0-----0--------|---------0--0--0----------|----6--5----5--3--5--3--|



--------------------------|-------------------------|--------------------------|
--------------------------|-------------------------|--------------------------|
--------9--------------9--|--------------9----------|--------------------------|
--------9-----5--------9--|-----5--------9-----5----|--5-----------5--2--0--2--|
--------7-----5--------7--|-----5--------7-----5----|--5-----------5--2--0--2--|
--0--0-----0--3--0--0-----|--0--3--0--0-----0--3----|--3--0--0--0--------------|



--------------------------|---------------------------|
--------------------------|---------------------------|
--------------------------|--------9---------------9--|
--------------------------|--------9-----5---------9--|
--------------8--7--5--7--|--------7-----5---------7--|
--6--5--3--5--------------|--0--0-----0--3--0-0-0-----|



--------------------------|---------------------------|
--------------------------|---------------------------|
--------------9-----10----|--10--9--------9-----------|
-----5--------9-----10----|--10--9--------9-----------|
-----5--------7-----8-----|--8---7--------7-----5-----|
--0--3--0--0-----0--------|---------0--0-----0-----6--|


                          Pre-Chorus
-------------------------|------------------------------|
-------------------------|------------------------------|
-------------------------|------------------------------|
-------------------------|------------------------------|
-------------------------|--9---9--9---9--9----------8--|
----6--5--3--0--3--5--6--|--7h8p7--7h8p7--7--7-7-7-7-6--|



-------------------------|------------------------------|
-------------------------|------------------------------|
-------------------------|------------------------------|
----------3/-2-----------|------------------------------|
-------4--------3-----3--|--9---9--9---9--9----------8--|
----6--------------5-----|--7h8p7--7h8p7--7--7-7-7-7-6--|



-------------------------|------------------------------|
-------------------------|------------------------------|
-------------------------|------------------------------|
----------4/-5-----------|------------------------------|
-------5--------7-----7--|--9---9--9---9--9----------8--|
----7--------------8-----|--7h8p7--7h8p7--7--7-7-7-7-6--|



--------------------------|------------------------------|
--------------------------|------------------------------|
--------------------------|------------------------------|
----------5/-7------------|------------------------------|
-------7--------8------8--|--9---9--9---9--9----------8--|
----8--------------10-----|--7h8p7--7h8p7--7--7-7-7-7-6--|


                           Chorus
-------------------------||---------------------------|
-------------------------||---------------------------|
-------------------------||*--------------------------|
-------------------------||*--------------------------|
----8--8--8--8--8--10----||---2--2--2--2--5--5--5--5--|
----6--6--6--6--6--8-----||---0--0--0--0--3--3--3--3--|



--------------------------|--------------------------|
--------------------------|--------------------------|
--------------------------|--------------------------|
--------------2--2--2--2--|--------------4--4--4--4--|
--4--4--4--4--0--0--0--0--|--5--5--5--5--2--2--2--2--|
--2--2--2--2--------------|--3--3--3--3--------------|



---------------------------||------------------------|------------------------|
---------------------------||------------------------|------------------------|
--------------------------*||------------------------|------------------------|
--------------------------*||--------2---------------|--------4---------------|
--2--3--0--2-----0---------||--------2---------------|--------4------0--0--0--|
--------------3-----2--3---||--0--0--0------3--3--3--|--2--2--2---------------|



------------------------|--------------------------|-------------------------|
------------------------|--------------------------|-------------------------|
------------------------|--------------------------|-------------------------|
--------5------4--4--4--|--------------------------|---------2---------------|
--------5------2--2--2--|--2--3--0--2-----0--------|---------2---------------|
--3--3--3---------------|--------------3-----2--3--|--0--0-0-0------3--3--3--|



-------------------------|------------------------|--------------------------|
-------------------------|------------------------|--------------------------|
-------------------------|------------------------|--------------------------|
---------4---------------|--------3------4--4--4--|--------------------------|
---------4------0--0--0--|--------3------2--2--2--|--2--3--0--2-----0--------|
--2--2-2-2---------------|--1--1--1---------------|--------------3-----2--3--|



|--------------------------------------------|
|--------------------------------------------|
|--------------------------------------------|
|--2-----------------------------------------|
|--2-----------------------------------------|
|--0-----------------------------------------|
|                                            |
|Lead Guitar Break /w Octaver (1 octave down)|
|--------------------------------------------|
|--------------------------------------------|
|--------------------------------------12-14-|
|-----------------------------14-12-14-------|
|--------------10-12-13-12-10----------------|
|--12~---10-12-------------------------------|


Lead Guitar Cont'
--------------------------------------------------|------------|
--------------------17-15-17-20-17-15-------------|------------|
--15-14-12-15-16~---------------------------------|------------|
--------------------------------------20-17-15----|------------|
-----------------------------------------------17-|------------|
--------------------------------------------------|--18~-------|


Rhythm Guitar - 3rd Verse
--------------------------|-------------------------|
--------------------------|-------------------------|
--------9--------------9--|--------------9----------|
--------9-----5--------9--|-----5--------9-----5----|
--------7-----5--------7--|-----5--------7-----5----|
--0--0-----0--3--0--0-----|--0--3--0--0-----0--3----|



--------------------------|--------------------------|
--------------------------|--------------------------|
--------------------------|--------------------------|
--5-----------5--2--0--2--|--------------------------|
--5-----------5--2--0--2--|--------------8--7--5--7--|
--3--0--0--0--------------|--6--5--3--5--------------|



--------------------------|--------------------------|
--------------------------|--------------------------|
--------9--------------9--|--------------9-----10----|
--------9-----5--------9--|-----5--------9-----10----|
--------7-----5--------7--|-----5--------7-----8-----|
--0--0-----0--3--0--0-----|--0--3--0--0-----0--------|



--------------------------|----------------------|--------------------------|
--------------------------|----------------------|--------------------------|
--10--9-------------------|----------------------|--------9--------------9--|
--10--9-----9----9--9--9--|----------------------|--------9-----5--------9--|
--8---7-----7----7--7--7--|----8----7----5----7--|--------7-----5--------7--|
---------0----------------|----6----5----3----5--|--0--0-----0--3--0--0-----|



--------------------------|--------------------------|
--------------------------|--------------------------|
--------------9-----------|--------------------------|
-----5--------9-----------|--------------5--2--0--2--|
-----5--------7-----5--2--|--5--2--------5--2--0--2--|
--0--3--0--0-----0--3--0--|--3--0--0--0--------------|



--------------------------|---------------------------|
--------------------------|---------------------------|
--------------------------|--------9---------------9--|
--------------------------|--------9-----5---------9--|
--------------8--7--5--7--|--------7-----5---------7--|
--6--5--3--5--------------|--0--0-----0--3--0-0-0-----|



--------------------------|---------------------------|
--------------------------|---------------------------|
--------------9-----10----|--10--9--------9-----------|
-----5--------9-----10----|--10--9--------9-----------|
-----5--------7-----8-----|--8---7--------7-----5-----|
--0--3--0--0-----0--------|---------0--0-----0-----6--|


                          Pre-Chorus
-------------------------|------------------------------|
-------------------------|------------------------------|
-------------------------|------------------------------|
-------------------------|------------------------------|
-------------------------|--9---9--9---9--9----------8--|
----6--5--3--0--3--5--6--|--7h8p7--7h8p7--7--7-7-7-7-6--|



-------------------------|------------------------------|
-------------------------|------------------------------|
-------------------------|------------------------------|
----------3/-2-----------|------------------------------|
-------4--------3-----3--|--9---9--9---9--9----------8--|
----6--------------5-----|--7h8p7--7h8p7--7--7-7-7-7-6--|



-------------------------|------------------------------|
-------------------------|------------------------------|
-------------------------|------------------------------|
----------4/-5-----------|------------------------------|
-------5--------7-----7--|--9---9--9---9--9----------8--|
----7--------------8-----|--7h8p7--7h8p7--7--7-7-7-7-6--|



--------------------------|------------------------------|
--------------------------|------------------------------|
--------------------------|------------------------------|
----------5/-7------------|------------------------------|
-------7--------8------8--|--9---9--9---9--9----------8--|
----8--------------10-----|--7h8p7--7h8p7--7--7-7-7-7-6--|


                          2nd Chorus
------------------------||---------------------------|
------------------------||---------------------------|
------------------------||*--------------------------|
------------------------||*--------------------------|
------------------------||---2--2--2--2--5--5--5--5--|
----6--6--6--6--6--8----||---0--0--0--0--3--3--3--3--|



--------------------------|--------------------------|
--------------------------|--------------------------|
--------------------------|--------------------------|
--------------2--2--2--2--|--------------4--4--4--4--|
--4--4--4--4--0--0--0--0--|--5--5--5--5--2--2--2--2--|
--2--2--2--2--------------|--3--3--3--3--------------|



---------------------------||------------------------|------------------------|
---------------------------||------------------------|------------------------|
--------------------------*||------------------------|------------------------|
--------------------------*||--------2---------------|--------4---------------|
--2--3--0--2-----0---------||--------2---------------|--------4------0--0--0--|
--------------3-----2--3---||--0--0--0------3--3--3--|--2--2--2---------------|



------------------------|--------------------------|-------------------------|
------------------------|--------------------------|-------------------------|
------------------------|--------------------------|-------------------------|
--------5------4--4--4--|--------------------------|---------2---------------|
--------5------2--2--2--|--2--3--0--2-----0--------|---------2---------------|
--3--3--3---------------|--------------3-----2--3--|--0--0-0-0------3--3--3--|



-------------------------|------------------------|--------------------------|
-------------------------|------------------------|--------------------------|
-------------------------|------------------------|--------------------------|
---------4---------------|--------3------4--4--4--|--------------------------|
---------4------0--0--0--|--------3------2--2--2--|--2--3--0--2-----0--------|
--2--2-2-2---------------|--1--1--1---------------|--------------3-----2--3--|



-------------------|------------------|------------------|------------------|
-------------------|------------------|------------------|------------------|
-------------------|------------------|------------------|------------------|
-------------------|------------------|------------------|------------------|
--2----------------|------------------|------------------|------------------|
--0----------------|------------------|------------------|------------------|


Bass plays...
|-------------------|------------------|------------------|-------------------||
|-------------------|------------------|------------------|-------------------||
|*------------------|------------------|------------------|------------------*||
|*------------------|------------------|------------------|------------------*||
|-------------------|------------------|------------------|-------------------||
|-------------------|------------------|------------------|-------------------||


Lead Guitar - solo     .  .  .  .  .  .
--------------------|---------------------------|----------------------|
--------------------|---------------------------|----------------------|
--------------------|---------------------------|----------------------|
--------------------|---------------------7--9--|--10~-------------10b-|
--7~-------------7--|--6--7--6--7--9--10--------|----------------------|
--------------------|---------------------------|----------------------|



--------------------------------|---------------------|
--------------------------------|---------------------|
---------------------12-----12--|--11~-------------9--|
------10h-12p-10--9------9------|---------------------|
--------------------------------|---------------------|
--------------------------------|---------------------|



-------------------------------|------------------------|
-------------------------------|------------------------|
--11-----9--11--12--9--11--12--|--14--------------------|
------9------------------------|------10~-----------12--|
-------------------------------|------------------------|
-------------------------------|------------------------|



-----------------------------|--------------------|
-----------------------------|--------------------|
---------------------9----8--|--9~----------------|
------10--12--10--9----------|-----------------9--|
-----------------------------|--------------------|
-----------------------------|--------------------|



-------------------------------8-12-8------------|
--------------------10------10--------10---------|
-------9-11----9-11----9-11--------------11-9----|
--9-10------10--------------------------------10-|
-------------------------------------------------|
-------------------------------------------------|



--13~--------13-13-13-10-13-10-------|
-------------------------------12----|
----------------------------------13-|
-------------------------------------|
-------------------------------------|
-------------------------------------|



--------------10-13p10-13p10-------------13-16p13-16p13-|
-----------12----------------12-------15----------------|
--10-10-13----------------------13-16-------------------|
--------------------------------------------------------|
--------------------------------------------------------|
--------------------------------------------------------|



--16h17p16h17-11h12p11h12-------------------------|
--------------------------12h13p12h13-------------|
--------------------------------------13h14p13h14-|
--------------------------------------------------|
--------------------------------------------------|
--------------------------------------------------|



---------------------------------------------------|--------------------|
--12h13p12h13--------------------------------------|--------------------|
--------------13h14p13h14--------------------------|--------------------|
--------------------------14h15p14h15--------------|--------------------|
---------------------------------------14h15p14p12-|--14~---------------|
---------------------------------------------------|--------------------|



--------------------------------------------------|
--17--15--13--15--13--12--13--12------------------|
----------------------------------14--16--14--13--|
--------------------------------------------------|
--------------------------------------------------|
--------------------------------------------------|



--19p-15----------------------------------14h-17/-|
----------17--------------------------15----------|
-*14~----------16------------------14-------------|
------------------17----------16------------------|
----------------------19/-17----------------------|
--------------------------------------------------|
* end of run in previous bar


--15p-12----------------------------------10h-14--|--12----------------|
----------13--------------------------12----------|-*12----------------|
--------------12------------------11--------------|--------------------|
------------------14----------12------------------|--------------------|
----------------------15/-14----------------------|--------------------|
--------------------------------------------------|--------------------|
                                                   * harmony guitar


------------------|--19p-15----------------------------------14h-17/-|
------------------|--------------------------------------------------|
------------------|----------19p-16------------------14h-16----------|
------------------|------------------17----------16------------------|
------------------|----------------------19/-17----------------------|
------------------|--------------------------------------------------|



--15p-12----------------------------------10h-14--|----------------------|
--------------------------------------------------|-*10--------------10r-|
----------14p-12------------------11h-14----------|--10--------------10r-|
------------------14----------12------------------|----------------------|
----------------------15/-14----------------------|----------------------|
--------------------------------------------------|----------------------|
													* harmony guitar


---------------------|
---------*9-10~------|
----------9-10~------|
---------------------|
---------------------|
---------------------|
         * harmony guitar


|---19p15----------------------15h19/-17p14----------------------14h17/-|
|---------17----------------17--------------15----------------15--------|
|*-----------19p16----16h19--------------------16p14----14h16-----------|
|*-----------------17--------------------------------16-----------------|
|-----------------------------------------------------------------------|
|-----------------------------------------------------------------------|



--15h12----------------------12h15/-14h10----------------------10h14--|
--------13----------------13--------------12----------------12--------|
-----------14p12----12h14--------------------14p11----11h14-----------|
-----------------14--------------------------------12-----------------|
----------------------------------------------------------------------|
----------------------------------------------------------------------|



-------------------|--------------------------------------------------|
-*8----------------|--------------------------------------------------|
--9----------------|--12--12--12--11--11--11--16--16--16--14--14--14--|
-------------------|-*14--14--14--12--12--12--17--17--17--16--16--16--|
-------------------|--------------------------------------------------|
-------------------|--------------------------------------------------|
 * harmony guitar


--19p15----------------------15h19p15-17p14----------------------14h17p14-|
--------17----------------17----------------15----------------15----------|
-----------19p16----16h19----------------------16p14----14h16-------------|
-----------------17----------------------------------16-------------------|
--------------------------------------------------------------------------|
--------------------------------------------------------------------------|



--15p12----------------------12h15p12-14p10----------------------10h14p10-|
--------13----------------13----------------12----------------12----------|
-----------14p12----12h14----------------------14p11----11h14-------------|
-----------------14----------------------------------12-------------------|
--------------------------------------------------------------------------|
--------------------------------------------------------------------------|



--------------------|----------------------------------|
-*10----------------|----10-10-10--10-10-10--8-8-8--7--|
--10----------------|----10-10-10--10-10-10--9-9-9--8--|
--------------------|----------------------------------|
--------------------|----------------------------------|
--------------------|----------------------------------|
 * harmony guitar

     Lead Guitar Break /w Octaver (1 octave down)
-------------------------------------|
--7----------------------------------|
--8---------5-------5-8--------8-11--|
----------7-------7---------10-------|
-----6--9-------9--------12----------|
-------------------------------------|



-----------------------------------------------------|
-------7-10--------10-13--------13-16p13-17p13-19-20-|
-----8----------11-----------14----------------------|
--10---------13-----------16-------------------------|
-----------------------------------------------------|
-----------------------------------------------------|



-----------------------------------------------------------|
--19-17-19-17----------------------------------------------|
--------------20-17-17-16-17-20-17-16----------16-16-16-16-|
--------------------------------------19-17-16-------------|
-----------------------------------------------------------|
-----------------------------------------------------------|



--------------------------------------19h20p19h20-|
--------------18-18-18-18-22-22-22-22-------------|
--20-20-20-20-------------------------------------|
--------------------------------------------------|
--------------------------------------------------|
--------------------------------------------------|



--19h20p19h20-19h20p19h20-19--------|
------------------------------------|
------------------------------------|
------------------------------------|
------------------------------------|
------------------------------------|


Rhythm Guitar - 4th Verse
------------------------|--------------------------|
------------------------|--------------------------|
------------------------|--------9--------------9--|
------------------------|--------9-----5--------9--|
------------------------|--------7-----5--------7--|
------------------------|--0--0-----0--3--0--0-----|



-------------------------|--------------------------|--------------------------|
-------------------------|--------------------------|--------------------------|
--------------9----------|--------------------------|--------------------------|
-----5--------9-----5----|--5-----------------------|--------------------------|
-----5--------7-----5----|--5--------------2-----2--|--------------8--7--5--7--|
--0--3--0--0-----0--3----|--3--0--0--0--0--0--0--0--|--6--5--3--5--------------|



--------------------------|--------------------------|
--------------------------|--------------------------|
--------9--------------9--|--------------9-----10----|
--------9-----5--------9--|-----5--------9-----10----|
--------7-----5--------7--|-----5--------7-----8-----|
--0--0-----0--3--0--0-----|--0--3--0--0-----0--------|



----------------------------|--------------------------|
----------------------------|--------------------------|
--10--9---------------------|--------------8-----------|
--10--9---------------------|-----------------6-----8--|
--8---7---------------------|--------5--4--------6-----|
---------0--0--0-0-0--0--0--|--5--6--------------------|



--------------------------|-------------------------|--------------------------|
--------------------------|-------------------------|--------------------------|
--------9--------------9--|--------------9----------|--------------------------|
--------9-----5--------9--|-----5--------9----------|--------------5--2--0--2--|
--------7-----5--------7--|-----5--------7-----5----|--5--2--------5--2--0--2--|
--0--0-----0--3--0--0-----|--0--3--0--0-----0--3----|--3--0--0--0--------------|



--------------------------|---------------------------|
--------------------------|---------------------------|
--------------------------|--------9---------------9--|
--------------------------|--------9-----5---------9--|
--------------8--7--5--7--|--------7-----5---------7--|
--6--5--3--5--------------|--0--0-----0--3--0-0-0-----|



--------------------------|---------------------------|
--------------------------|---------------------------|
--------------9-----10----|--10--9--------9-----7-----|
-----5--------9-----10----|--10--9--------9-----7--8--|
-----5--------7-----8-----|--8---7--------7-----5--8--|
--0--3--0--0-----0--------|---------0--0-----0-----6--|



--------------------------------|------------------------------|
--------------------------------|------------------------------|
--------------------------------|------------------------------|
--------------------------------|------------------------------|
--------------------------------|--9---9--9---9--9----------8--|
----6-6-5-5-3-3-0-0-3-3-5-5-6-6-|--7h8p7--7h8p7--7--7-7-7-7-6--|



-------------------------|------------------------------|
-------------------------|------------------------------|
-------------------------|------------------------------|
----------3/-2-----------|------------------------------|
-------4--------3-----3--|--9---9--9---9--9----------8--|
----6--------------5-----|--7h8p7--7h8p7--7--7-7-7-7-6--|



-------------------------|------------------------------|
-------------------------|------------------------------|
-------------------------|------------------------------|
----------4/-5-----------|------------------------------|
-------5--------7-----7--|--9---9--9---9--9----------8--|
----7--------------8-----|--7h8p7--7h8p7--7--7-7-7-7-6--|



--------------------------|------------------------------|
--------------------------|------------------------------|
--------------------------|------------------------------|
----------5/-7------------|------------------------------|
-------7--------8------8--|--9---9--9---9--9----------8--|
----8--------------10-----|--7h8p7--7h8p7--7--7-7-7-7-6--|


                                 3rd Chorus
-------------------------------||---------------------------|
-------------------------------||---------------------------|
-------------------------------||*--------------------------|
-------------------------------||*--------------------------|
-------------------------------||---2--2--2--2--5--5--5--5--|
----6--6--6--6--6--6--6--6--8--||---0--0--0--0--3--3--3--3--|



--------------------------|--------------------------|
--------------------------|--------------------------|
--------------------------|--------------------------|
--------------2--2--2--2--|--------------4--4--4--4--|
--4--4--4--4--0--0--0--0--|--5--5--5--5--2--2--2--2--|
--2--2--2--2--------------|--3--3--3--3--------------|


                           3x
---------------------------||--------------------------|
---------------------------||--------------------------|
--------------------------*||--------------------------|
--------------------------*||--------------4--4--4--4--|
--2--3--0--2-----0---------||--3--3--3--3--2--2--2--2--|
--------------3-----2--3---||--1--1--1--1--------------|



---------------------------||-------------------------|------------------------|
---------------------------||-------------------------|------------------------|
---------------------------||*------------------------|------------------------|
---------------------------||*--------2---------------|--------4---------------|
--2--3--0--2-----0---------||---------2---------------|--------4------0--0--0--|
--------------3-----2-2-3--||---0--0--0------3--3--3--|--2--2--2---------------|


                                                    2x
------------------------|---------------------------||
------------------------|---------------------------||
------------------------|--------------------------*||
--------5------4--4--4--|--------------------------*||
--------5------2--2--2--|--2--3--0--2-----0---------||
--3--3--3---------------|--------------3-----2--3---||



----------------------------------|----------------------------------|
----------------------------------|----------------------------------|
----------------------------------|----------------------------------|
----------------------------------|----------------------------------|
----------------------------------|------------------0-0-0-0-0-0-0-0-|
--0-0-0-0-0-0-0-0-3-3-3-3-3-3-3-3-|--2-2-2-2-2-2-2-2-----------------|



----------------------------------|---------------------------|
----------------------------------|---------------------------|
----------------------------------|---------------------------|
----------------------------------|---------------------------|
------------------2-2-2-2-2-2-2-2-|--2--3--0--2-----0---------|
--1-1-1-1-1-1-1-1-----------------|--------------3-----2-2-3--|


Outro
--------------------------|--------------------------|
--------------------------|--------------------------|
--------9--------------9--|--------------9-----------|
--------9-----5--------9--|-----5--------9-----5-----|
--------7-----5--------7--|-----5--------7-----5-----|
--0--0-----0--3--0--0-----|--0--3--0--0-----0--3--0--|



--------------------------|-------------------------|--------------------------|
--------------------------|-------------------------|--------------------------|
--------9--------------9--|--------------9----------|--------9--------------9--|
--5-----9-----5--------9--|-----5--------9-----5----|--5-----9-----5--------9--|
--5-----7-----5--------7--|-----5--------7-----5----|--5-----7-----5--------7--|
--3--0-----0--3--0--0-----|--0--3--0--0-----0--3----|--3--0-----0--3--0--0-----|



--------------------------|---------------------------|------------------------|
--------------------------|---------------------------|------------------------|
--------------9-----------|--------9--------------12--|------------------10----|
-----5--------9-----5-----|--5-----9-----5--------12--|----10-------8----10----|
-----5--------7-----5-----|--5-----7-----5--------10--|----10-------8----8-----|
--0--3--0--0-----0--3--0--|--3--0-----0--3--0--0------|----8-----0--6----------|



---------------------------|-------------------------|
---------------------------|-------------------------|
--------9---------------9--|--------------9----------|
--------9-----5---------9--|-----5--------9-----5----|
--------7-----5---------7--|-----5--------7-----5----|
--0--0-----0--3--0-0-0-----|--0--3--0--0-----0--3----|



---------------------------|----------------------|---------------------------|
---------------------------|----------------------|---------------------------|
--------9---------------6--|-----------------3----|--------9---------------9--|
--5-----9-----5---------6--|----6-------5----3----|--------9-----5---------9--|
--5-----7-----5---------4--|----6-------5----1----|--------7-----5---------7--|
--3--0-----0--3--0-0-0-----|----4----0--3---------|--0--0-----0--3--0-0-0-----|



-------------------------|-----------------------------|----------------------|
-------------------------|-----------------------------|----------------------|
--------------9----10----|--10--9--12--------------10--|-----------------6----|
-----5--------9----10----|--10--9--12----10--------10--|----8----5--6----6----|
-----5--------7----8-----|--8---7--10----10--------8---|----8----5--6----4----|
--0--3--0--0-------------|---------------8-----0-0-----|----6----3--4---------|



---------------------------|---------------------------|
---------------------------|---------------------------|
---------------------------|---------------------------|
---------------------------|---------------------------|
--2--3--0--2-----0---------|--2--3--0--2-----0---------|
--------------3-----2-2-3--|--------------3-----2-2-3--|



---------------------------|-------------------------------|
---------------------------|-------------------------------|
---------------------------|-------------------------------|
---------------------------|-------------------------------|
--2--3--0--2-----0---------|--7h9h10-----5h7h9-----3h5h7---|
--------------3-----2-2-3--|---------8---------7---------5-|



---------------------------|------------------||
---------------------------|------------------||
---------------------------|------------------||
-------------------------2-|------------------||
----1h3h5-----5p3p1------2-|------------------||
----------3---------1----0-|------------------||

  Visit MetalTabs.com for more metal tablature

bottom separator

Contact Us | Privacy Policy | Disclaimer | Legal Notice
Copyright © 2001-2014 MetalTabs.com. All Rights Reserved.