top separator

Home

Forum

What's New

Submit a Tab

FAQ

Links

Contact Us

Link to Us

MuSpy.com

MetalTabs.com logo

Bands

0-9

A

B

C

D

E

F

G

H

I

J

K

L

M

N

O

P

Q

R

S

T

U

V

W

X

Y

Z

Search

What

Where
 

Criminal - "Downfall" Guitar Tab

Plain Text Version
More Criminal Tabs

Hits: 3168
Rated: 3.50 out of 5 (4 votes)
Updated: 2005-03-16 13:31:12

 

By:

sendpm.gif

email.gif

Important note
This tab is available online because we obtained explicit permission from Criminal or their label.


#----------------------------------PLEASE NOTE---------------------------------#
#This file is the author's own work and represents their interpretation of the #
#song. You may only use this file for private study, scholarship, or research. #
#Unless specified otherwise, this is NOT an official tab from the band members.#
#------------------------------------------------------------------------------#

  Visit MetalTabs.com for more metal tablature
  
Band:  Criminal
Album: No Gods, No Masters
Song:  Downfall

Copyright (c)  (Metal Blade) (2004)
Version 1.0 - (2005)

Transcribed By: (Sebastián Riveros)
Email:          (sebastian.riveros@gmail.com)


.  - palm mute           /  - slide up to
\  - slide down to       ~  - vibrato
h  - hammer on           b  - Bend
p  - pull off            Suffixes for bend
t  - tap                 f  - full bend    h - half bend
ph - pinched harmonic    q  - quarter bend t - tap bend
*  - see comment         ^  - Hold bend    r release bend
x  - Stuccatto           ~  - vibrato bend
,  - slight palm mute    () - ghost note, sustained note
"  - tremolo note        <> - Trill

Tunning B,E,A,D,F#,B

Intro

 Riff A1
|------------------------------|
|------------------------------|
|------------------------------|  x4
|------------------------------|
|------------------------------|
|---4-3-0-6-5-0-8-7-0-10-9-0---|

 Riff A2
    1.- 3.-
|---------------------------------|
|---------------------------------|
|---8888888-8-8-88-8-8-888-99999--|
|---8888888-8-8-88-8-8-888-99999--|
|---6666666-6-6-66-6-6-666-77777--|
|--------------------------00000--|
                         pm----->
 Riff A3
    2.- 4.-
|---------------------------------|
|---------------------------------|
|---8888888-8-8-88-8-8-888--------|
|---8888888-8-8-88-8-8-888-55555--|
|---6666666-6-6-66-6-6-666-55555--|
|--------------------------33333--|
                         pm----->

 Riff A1
|------------------------------|
|------------------------------|
|------------------------------|  x4
|------------------------------|
|------------------------------|
|---4-3-0-6-5-0-8-7-0-10-9-0---|

 Riff A2
    1.- 3.-
|---------------------------------|
|---------------------------------|
|---8888888-8-8-88-8-8-888-99999--|
|---8888888-8-8-88-8-8-888-99999--|
|---6666666-6-6-66-6-6-666-77777--|
|--------------------------00000--|
                         pm----->
 Riff A3
    2.- 4.-
|---------------------------------|
|---------------------------------|
|---8888888-8-8-88-8-8-888--------|
|---8888888-8-8-88-8-8-888-55555--|
|---6666666-6-6-66-6-6-666-55555--|
|--------------------------33333--|
                         pm----->

 Riff B1
    1.- 3.-
|---------------------------------|
|---------------------------------|
|---8-8-999999-8-8--11-11-11-11---|
|---8-8-999999-8-8--9--9--9--9----|
|---6-6-777777-6-6--9--9--9--9----|
|-------000000--------------------|
      pm----->

 Riff B2
    2.- 4.-
|---------------------------------|
|---------------------------------|
|---8-8-999999-8-8--12-12-12-12---|
|---8-8-999999-8-8--10-10-10-12---|
|---6-6-777777-6-6--10-10-10-10---|
|-------000000--------------------|
      pm----->

 Riff B3

|---------------------------------|
|---------------------------------|
|---------------------------------|
|---------------------------------|
|---32-----543--------------------|
|-----43200---543-----------------|

 Bass Interlude

 Riff C1

|----------------------------------|
|----------------------------------|
|---10101010101010-----------------|
|---10101010101010-----------------|     x4
|---8-8-8-8-8-8-8------------------|
|----------------------------------|
                ^ Stacatto

 Riff C2

|----------------------------------|
|----------------------------------|
|----------------------------------|
|--222222222222--------------------|     x8
|--222222222222--------------------|
|--000000000000--<7><7><9><9>------|
 pm------------> |----PH-----|

 Riff C1

|----------------------------------|
|----------------------------------|
|---10101010101010-----------------|
|---10101010101010-----------------|     x8
|---8-8-8-8-8-8-8------------------|
|----------------------------------|
                ^ Stacatto


End

  Visit MetalTabs.com for more metal tablature

bottom separator

Contact Us | Privacy Policy | Disclaimer | Legal Notice
Copyright © 2001-2014 MetalTabs.com. All Rights Reserved.