top separator

Home

Forum

What's New

Submit a Tab

FAQ

Links

Contact Us

Link to Us

MetalTabs.com logo

Bands

0-9

A

B

C

D

E

F

G

H

I

J

K

L

M

N

O

P

Q

R

S

T

U

V

W

X

Y

Z

Search

What

Where
 

Ivory Knight - "Eleven" Guitar Tab

Plain Text Version
More Ivory Knight Tabs

Hits: 2061
Updated: 2005-03-16 13:31:01

 

By:

blackjacques

sendpm.gif

email.gif

Important note
This tab is available online because we obtained explicit permission from Ivory Knight or their label.


#----------------------------------PLEASE NOTE---------------------------------#
#This file is the author's own work and represents their interpretation of the #
#song. You may only use this file for private study, scholarship, or research. #
#Unless specified otherwise, this is NOT an official tab from the band members.#
#------------------------------------------------------------------------------#

  Visit MetalTabs.com for more metal tablature
  
Band:  Ivory Knight (www.ivoryknight.com)
Song:  Eleven
Album: Unconscience
Unconscience was mixed and mastered by Jeff Waters of Annihilator fame.
The artwork was done by acclaimed artist Gyula Havanscak, who also did
Annihilator's "All for You" album.
Both Unconscience and Ivory Knight's debut album "Up from the Ashes"
are available at CD Baby:  http://www.cdbaby.com/cd/ivoryknight2

Copyright (c)  2004
Version 1.0 - Feb 25, 2005

Transcribed By: Rob Gravelle
Email:          blackjacques@musician.org


.  - palm mute           /  - slide up to
\  - slide down to       ~  - vibrato
h  - hammer on           b  - Bend
p  - pull off            Suffixes for bend
t  - tap                 f  - full bend    h - half bend
ph - pinched harmonic    q  - quarter bend t - tap bend
*  - see comment         ^  - Hold bend    r release bend
x  - Stuccatto           ~  - vibrato bend
,  - slight palm mute    () - ghost note, sustained note
"  - tremolo note        <> - Trill

Tunning E A D G B E

128 Bpm Heavy Rock feel.  \w distortion
E||---------------------------|---------------------------|
B||---------------------------|---------------------------|
G||---------------------------|---------------------------|
D||---------------------------|---------------------------|
A||---------------------------|---------------------------|
E||--2--0--1-2--0--1--2-0--1--|--2--0--1-2--0--1--2-0--1--|



---------------------------|------------------------------|
---------------------------|------------------------------|
---------------------------|------------------------------|
---------------------------|--------------------4-5-------|
---------------------------|------------------3-----4-----|
--2--0--1-2--0--1--2-0--1--|--2--0--1-2--1--2---------3-0-|



---------------------------|---------------------------|
---------------------------|---------------------------|
---------------------------|---------------------------|
---------------------------|---------------------------|
---------------------------|---------------------------|
--2--0--1-2--0--1--2-0--1--|--2--0--1-2--0--1--2-3--1--|



---------------------------|------------------------------|
---------------------------|------------------------------|
---------------------------|------------------------------|
---------------------------|--------------------4-5-------|
---------------------------|------------------3-----4-----|
--2--0--1-2--0--1--2-0--1--|--2--0--1-2--1--2---------3-0-|


 with lower octave pitch shift
---------------------------|----------------------------|
---------------------------|----------------------------|
---------------------------|----------------------------|
---------------------------|----------------------------|
--9--7--8-9--7--8--9-7--8--|--9--7--8-9--7--8--9-10--8--|
---------------------------|----------------------------|



---------------------------|------------------------------------|
---------------------------|------------------------------------|
---------------------------|----------------------11-12---------|
---------------------------|-------------------10-------11------|
--9--7--8-9--7--8--9-7--8--|--9--7--8-9h0-8--9-------------10---|
---------------------------|----------------------------------0-|


end of pitch shift effect
---------------------------|---------------------------|
---------------------------|---------------------------|
---------------------------|---------------------------|
---------------------------|---------------------------|
--4--2--3-4--2--3--4-2--3--|--4--2--3-4--2--3--4-5--3--|
--2--0--1-2--0--1--2-0--1--|--2--0--1-2--0--1--2-3--1--|



---------------------------|-------------------------------|
---------------------------|-------------------------------|
---------------------------|-------------------------------|
---------------------------|-----------------5------3------|
--4--2--3-4--2--3--4-2--3--|--4--2--3-4--3---5------3------|
--2--0--1-2--0--1--2-0--1--|--2--0--1-2--1---3------1------|


204 Bpm
------------------------------------|----------------------------------|
------------------------------------|----------------------------------|
------------------------------------|----------------------------------|
------------------------------------|--5----5----5--5--5----5----5--5--|
-----------2-----1------2--3--------|--5----5----5--5--5----5----5--5--|
--0--0--0-----0---------------2--0--|--3----3----3--3--3----3----3--3--|



------------------------------------|----------------------------------|
------------------------------------|----------------------------------|
------------------------------------|----------------------------------|
------------------------------------|--5----5----5--4--3----3----3--3--|
-----------2-----1------2--3--------|--5----5----5--4--3----3----3--3--|
--0--0--0-----0---------------2--0--|--3----3----3--2--1----1----1--1--|



-----------------------------------|------------------------------------|
-----------------------------------|------------------------------------|
-----------------------------------|------------------4--2--2--4--2--2--|
-----------------------------------|--5----5----5--5--5-----5--5-----5--|
-----------2----1------2--3--------|--5----5----5--5--------------------|
--0--0--0--------------------2--0--|--3----3----3--3--------------------|



------------------------------------|----------------------------------|
------------------------------------|----------------------------------|
------------------------------------|----------------------------------|
------------------------------------|--5----5----5--4--3----3----3--3--|
-----------2-----1------2--3--------|--5----5----5--4--3----3----3--3--|
--0--0--0-----0---------------2--0--|--3----3----3--2--1----1----1--1--|



|---------------------------------------|--------------------------------------|
|---------------------------------------|--------------------------------------|
|*--------------------------------------|--------------------------------------|
|*---------7-8-7-------------7-8-7------|---------7-8-7-------------7-8-7------|
|--------8-------8---------8-------8----|-------8-------8---------8-------8----|
|---8-10-----------10-8-10-----------10-|--8-10-----------10-8-10-----------10-|



--------------------------------------|-------------------------------------||
--------------------------------------|-------------------------------------||
--------------------------------------|------------------------------------*||
---------7-8-7-------------7-8-7------|---------7-8-7------------5-7-5-----*||
-------8-------8---------8-------8----|-------8-------8--------7-------7----||
--7-10-----------10-7-10-----------10-|--6-10-----------10-5-9-----------9--||



------------------------------------|-----------------------------|
------------------------------------|-----------------------------|
------------------------------------|-----------------------------|
---------7-8-7------------5-7-5-----|-----------------------------|
-------8-------8--------7-------7-8-|--9------------------7-7-8-8-|
--6-10-----------10-5-9-------------|-----0--1-2--0--1--2---------|



-----------------------------|-----------------------------|
-----------------------------|-----------------------------|
-----------------------------|-----------------------------|
-----------------------------|-----------------------------|
--9------------------7---8---|--9----------------7---7---8-|
-----0--1-2--0--1--7---7---8-|-----0--1-2--0--1----7---8---|



------------------------------------|---------------------------|
------------------------------------|---------------------------|
----------------------11-12---------|---------------------------|
-------------------10-------11------|---------------------------|
--9--7--8-9p0-8--9-------------10---|--4--2--3-4--2--3--4-2--3--|
----------------------------------0-|--2--0--1-2--0--1--2-0--1--|



---------------------------|---------------------------|--------------|
---------------------------|---------------------------|--------------|
---------------------------|---------------------------|--------------|
---------------------------|---------------------------|--------------|
--4--2--3-4--2--3--4----3--|--4--2--3-4--2--3--4-2--3--|--4--2--3-4---|
--2--0--1-2--0--1--2-3--1--|--2--0--1-2--0--1--2-0--1--|--2--0--1-2---|


204 Bpm
----------------------------------|------------------------------------|
----------------------------------|------------------------------------|
----------------------------------|------------------------------------|
--5----5----5--5--3----3----3--3--|------------------------------------|
--5----5----5--5--3----3----3--3--|-----------2-----1------2--3--------|
--3----3----3--3--1----1----1--1--|--0--0--0-----0---------------2--0--|



----------------------------------|------------------------------------|
----------------------------------|------------------------------------|
----------------------------------|------------------------------------|
--5----5----5--5--5----5----5--5--|------------------------------------|
--5----5----5--5--5----5----5--5--|-----------2-----1------2--3--------|
--3----3----3--3--3----3----3--3--|--0--0--0-----0---------------2--0--|



----------------------------------|------------------------------------|
----------------------------------|------------------------------------|
----------------------------------|------------------------------------|
--5----5----5--4--3----3----3--3--|------------------------------------|
--5----5----5--4--3----3----3--3--|-----------2-----1------2--3--------|
--3----3----3--2--1----1----1--1--|--0--0--0-----0---------------2--0--|



------------------------------------|------------------------------------|
------------------------------------|------------------------------------|
------------------4--2--2--4--2--2--|------------------------------------|
--5----5----5--5--5-----5--5-----5--|------------------------------------|
--5----5----5--5--------------------|-----------2-----1------2--3--------|
--3----3----3--3--------------------|--0--0--0-----0---------------2--0--|


                                    128 Bpm
----------------------------------|--------------------------------------|
----------------------------------|--------------------------------------|
----------------------------------|--------------------------------------|
--5----5----5--4--3----3----3--3--|---------7-8-7-------------7-8-7------|
--5----5----5--4--3----3----3--3--|-------8-------8---------8-------8----|
--3----3----3--2--1----1----1--1--|--8-10-----------10-8-10-----------10-|



--------------------------------------|--------------------------------------|
--------------------------------------|--------------------------------------|
--------------------------------------|--------------------------------------|
---------7-8-7-------------7-8-7------|---------7-8-7-------------7-8-7------|
-------8-------8---------8-------8----|-------8-------8---------8-------8----|
--8-10-----------10-8-10-----------10-|--7-10-----------10-7-10-----------10-|



------------------------------------|--------------------------------------|
------------------------------------|--------------------------------------|
------------------------------------|--------------------------------------|
---------7-8-7------------5-7-5-----|---------7-8-7-------------7-8-7------|
-------8-------8--------7-------7---|-------8-------8---------8-------8----|
--6-10-----------10-5-9-----------9-|--8-10-----------10-8-10-----------10-|


|--------------------------------------|--------------------------------------|
|--------------------------------------|--------------------------------------|
|--------------------------------------|--------------------------------------|
|---------7-8-7-------------7-8-7------|---------7-8-7--------10-8-7-8-7------|
|-------8-------8---------8-------8----|-------8-------8-----------------8----|
|--8-10-----------10-8-10-----------10-|--8-10-----------10-8--------------10-|
|                                                                             |
|Lead Guitar                                                                  |
|--------------------------------------|--------------------------------------|
|--------------------------------------|--------------------------------------|
|--------------------------------------|--------------------------------------|
|--7-7-7-7-7-7-7-7-7-7-7-7-7-7-7-7-----|--7-7-7-7-7-7-7-7-7-7-7-7-7-7-7-7-----|
|--5-5-5-5-5-5-5-5-5-5-5-5-5-5-5-5-----|--5-5-5-5-5-5-5-5-5-5-5-5-5-5-5-5-----|
|--------------------------------------|--------------------------------------|


|--------------------------------------|------------------------------------|
|--------------------------------------|------------------------------------|
|--------------------------------------|------------------------------------|
|---------7-8-7-------------7-8-7------|---------7-8--------------5-7-------|
|-------8-------8---------8-------8----|-------8-----8----------7-----7-----|
|--7-10-----------10-7-10-----------10-|--6-10---------10-6-5-9---------9-5-|
|                                                                           |
|--------------------------------------|------------------------------------|
|--------------------------------------|------------------------------------|
|--------------------------------------|------------------------------------|
|--3-3-3-3-3-3-3-3-3-3-3-3-3-3-3-3-----|------------------------------------|
|--2-2-2-2-2-2-2-2-2-2-2-2-2-2-2-2-----|------------------------------------|
|--------------------------------------|--6~-------------6--5~----------5---|


Lead Guitar Cont'
----------------------------------|------------------------------------|
----------------------------------|------------------------------------|
----------------------------------|------------------------------------|
----------------------------------|-------------------ph-------ph------|
------5-7-8-7-5-------5-7-8-7-5---|------7-8-10-8-7-0-10-8-7-0-8-7-5-0-|
--4-6-----------6-4-6-----------6-|--5-6-------------------------------|



----------------------------------|------------------------------------|
----------------------------------|------------------------------------|
--------------------------------7-|--6-----7-6-----------------7h6-7h6-|
----------------------------6-9---|----6-7-----5-7---------5h7---------|
------5-7-8-7-5-------5-7-8-------|----------------8-----7-------------|
--4-6-----------6-4-6-------------|------------------5-9---------------|



-------------------------------------------|
-------------------------------------------|
----------------------------------9-12-9---|
--------------------------------9--------9-|
-------------9-10-12-9-------10------------|
--10-9-10-12-----------11-12---------------|



------------------------------------------------|
------------------------------------------------|
-------------9/10-------------10-12-13-10-------|
----------10------10-------10-------------10----|
--8-10-11------------13-11-------------------11-|
------------------------------------------------|



-----------------10-13/14-10------------------|
---------9-11-12-------------12---------------|
----6-10------------------------13-10---------|
--8-----------------------------------12-9----|
-------------------------------------------11-|
----------------------------------------------|



------------10p8------8-4-------------|
----------9------9--------6---9-6-----|
-------10----------10-------8-----8-5-|
--8-11--------------------------------|
--------------------------------------|
--------------------------------------|



------------------------------------------------|
--12----------------13-11-9---------12----------|
-----13-12-10---------------12-10-9----13-12-10-|
--------------14-11-----------------------------|
------------------------------------------------|
------------------------------------------------|



-----------------------------------------------|---------|----------|
--------13-11-9---------12---------------------|---------|----------|
----------------12-10-9----13-12-10-12-10-9----|---------|----------|
--14-11-------------------------------------11-|--10~----|----------|
-----------------------------------------------|---------|----------|
-----------------------------------------------|---------|----------|



Piano interlude, Slower
--------3--------4--------|--6--------6-----6--|--------3--------4--------|
-----5--------6--------8--|--------8-----------|-----5--------6--------8--|
--5--------5--------5-----|-----5--------6-----|--5--------5--------5-----|
--5-----------------------|--------------------|--5-----------------------|
--3-----------------------|--------------------|--3-----------------------|
--------------------------|--------------------|--------------------------|


|--------3--------4--------|--6--------6-----6--|--------3--------4--------|
|-----5--------6--------8--|--------8-----------|-----5--------6--------8--|
|--5--------5--------5-----|-----5--------6-----|--5--------5--------5-----|
|--5-----------------------|--------------------|--5-----------------------|
|--3-----------------------|--------------------|--3-----------------------|
|--------------------------|--------------------|--------------------------|
|                                                                          |
|Clean Guitar                                                              |
|--------------------------|--------------------|--------------------------|
|--------------------------|--------------------|--------------------------|
|--------------------------|--------------------|--9---------------7---9---|
|--------------------------|--------------------|--------------------------|
|--------------------------|--------------------|--------------------------|
|--------------------------|--------------------|--------------------------|


|--6--------6-----6--|--------3--------4--------|--6--------6-----6--|
|--------8-----------|-----5--------6--------8--|--------8-----------|
|-----5--------6-----|--5--------5--------5-----|-----5--------6-----|
|--------------------|--5-----------------------|--------------------|
|--------------------|--3-----------------------|--------------------|
|--------------------|--------------------------|--------------------|
|                                                                    |
|--------------------|--------------------------|--------------------|
|--------------------|--------------------------|--------------------|
|--10--------12------|--9---------------7---9---|--10----------------|
|--------------------|--------------------------|------------11------|
|--------------------|--------------------------|--------------------|
|--------------------|--------------------------|--------------------|




|--------3--------4--------|--6--------6-----6--|--------3--------4--------|
|-----5--------6--------8--|--------8-----------|-----5--------6--------8--|
|--5--------5--------5-----|-----5--------6-----|--5--------5--------5-----|
|--5-----------------------|--------------------|--5-----------------------|
|--3-----------------------|--------------------|--3-----------------------|
|--------------------------|--------------------|--------------------------|
|
|--------------------------|--------------------|--------------------------|
|--------------------------|--------------------|--------------------------|
|--9---------------7---9---|--10--------12------|--9---------------7---9---|
|--------------------------|--------------------|--------------------------|
|--------------------------|--------------------|--------------------------|
|--------------------------|--------------------|--------------------------|


|--6--------6-----6--|--------3--------4--------|--6--------6-----6--|
|--------8-----------|-----5--------6--------8--|--------8-----------|
|-----5--------6-----|--5--------5--------5-----|-----5--------6-----|
|--------------------|--5-----------------------|--------------------|
|--------------------|--3-----------------------|--------------------|
|--------------------|--------------------------|--------------------|
|                                                                    |
|--------------------|--------------------------|--------------------|
|--------------------|--------------------------|--------------------|
|--10----------------|--------------------------|--------------------|
|-------------11-----|--10----------------------|--------------------|
|--------------------|--------------------------|--------------------|
|--------------------|--------------------------|--------------------|
|
|Rhythm Guitar
|--------------------|--------------------------|--------------------|
|--------------------|--------------------------|--------------------|
|--------------------|--------------------------|--------------------|
|--------------------|--10----------------------|--------------------|
|--------------------|--10----------------------|--------------------|
|--------------------|--8-----------------------|--------------------|


|--------3--------4--------|--6--------6-----6-|
|-----5--------6--------8--|--------8----------|
|--5--------5--------5-----|-----5--------6----|
|--5-----------------------|-------------------|
|--3-----------------------|-------------------|
|--------------------------|-------------------|
|
|Rhythm Guitar                                   134 Bpm
|--------------------------|-------------------||-----------------------------|
|--------------------------|-------------------||-----------------------------|
|--------------------------|-------------------||*----------------------------|
|--10----------------------|-------------------||*----------------------------|
|--10----------------------|-------------------||---------10-----8--11-----10-|
|--8-----------------------|-------------------||--8--12------8---------8-----|


Rhythm Guitar Cont'
----------------------|--------------------------------|
----------------------|--------------------------------|
----------------------|--------------------------------|
--8---------8------8--|--------------------------------|
--------10------------|---------10-----8--10--11-11-7--|
-----8---------9-9----|--8--12------8------------------|


                               3x
-------------------------------||------------------------|--------------------|
-------------------------------||------------------------|--------------------|
------------------------------*||------------------------|--------------------|
-----8-------------8------11--*||--11--------13--13------|------13--13--13----|
-----------10--11--------------||--11--------11--11------|------11--11--11----|
--8-----8-------------8-8------||--9---------9---9-------|------9---9---9-----|


128 Bpm
-------------------------------|-------------------------------|
-------------------------------|-------------------------------|
-------------------------------|------------------3------------|
-------------------------------|------------------3---------5--|
--------------------------2----|------------------1---------5--|
--2-0-1-2-0-2-1-0-2-0-1-2-0----|--2-0-1-2-0-2-1-0----0-0-0--3--|



-------------------------------|--------------------------------|
-------------------------------|--------------------------------|
-------------------------------|--------------------------5--5--|
-------------------------------|--------------------------5--5--|
--------------------------2----|--------------------------3--3--|
--2-0-1-2-0-2-1-0-2-0-1-2-0----|--2-0-1-2-0-2-1-0-2-0-1-2-------|



-------------------------------|----------------------------------|
-------------------------------|----------------------------------|
-------------------------------|----------------------------------|
-------------------------------|----------------------------------|
--------------------------2----|----------------------------------|
--2-0-1-2-0-2-1-0-2-0-1-2-0----|--2-0-1-2-0-2-1-0-6-6-5-5-4-3-2-1-|



---------------------------|---------------------------|
---------------------------|---------------------------|
---------------------------|---------------------------|
---------------------------|---------------------------|
---------------------------|---------------------------|
--2--0--1-2--0--1--2-0--1--|--2--0--1-2--0--1--2-0--1--|



---------------------------|------------------------------|
---------------------------|------------------------------|
---------------------------|------------------------------|
---------------------------|--------------------4-5-------|
---------------------------|------------------3-----4-----|
--2--0--1-2--0--1--2-0--1--|--2--0--1-2--1--2---------3-0-|



---------------------------|---------------------------|
---------------------------|---------------------------|
---------------------------|---------------------------|
---------------------------|---------------------------|
---------------------------|---------------------------|
--2--0--1-2--0--1--2-0--1--|--2--0--1-2--0--1--2-0--1--|



---------------------------|------------------------------|
---------------------------|------------------------------|
---------------------------|------------------------------|
---------------------------|--------------------4-5-------|
---------------------------|------------------3-----4-----|
--2--0--1-2--0--1--2-0--1--|--2--0--1-2--1--2---------3-0-|



---------------------------|---------------------------|
---------------------------|---------------------------|
---------------------------|---------------------------|
---------------------------|---------------------------|
---------------------------|---------------------------|
--2--0--1-2--0--1--2-0--1--|--2--0--1-2--0--1--2-3--1--|



---------------------------|------------------------------|
---------------------------|------------------------------|
---------------------------|------------------------------|
---------------------------|--------------------4-5-------|
---------------------------|------------------3-----4-----|
--2--0--1-2--0--1--2-0--1--|--2--0--1-2--1--2---------3-0-|



---------------------------|---------------------------|
---------------------------|---------------------------|
---------------------------|---------------------------|
---------------------------|---------------------------|
--4--2--3-4--2--3--4-2--3--|--4--2--3-4--2--3--4-ph----|
--2--0--1-2--0--1--2-0--1--|--2--0--1-2--0--1--2-3--1--|



------------------------------|------------------------------|
------------------------------|------------------------------|
------------------------------|------------------------------|
------------------------------|--------------------4-5-------|
----------------5-4---3-4-----|------------------3-----4-----|
--2--0--1-2--0------2-----0-1-|--2--0--1-2--1--2---------3-0-|


204 Bpm
--------------------------------------|----------------------------------|
--------------------------------------|----------------------------------|
--------------------------------------|----------------------------------|
--------------------------------------|--5----5----5--5--5----5----5--5--|
------------2-----1-------2--3--------|--5----5----5--5--5----5----5--5--|
--0--0-0-0-----0-------0--------2--0--|--3----3----3--3--3----3----3--3--|



------------------------------------|----------------------------------|
------------------------------------|----------------------------------|
------------------------------------|----------------------------------|
------------------------------------|--5----5----5--4--3----3----3--3--|
-----------2-----1------2--3--------|--5----5----5--4--3----3----3--3--|
--0--0--0-----0---------------2--0--|--3----3----3--2--1----1----1--1--|



------------------------------------|------------------------------------|
------------------------------------|------------------------------------|
------------------------------------|------------------4--2--2--4--2--2--|
------------------------------------|--5----5----5--5--5-----5--5-----5--|
-----------2-----1------2--3--------|--5----5----5--5--------------------|
--0--0--0-----0---------------2--0--|--3----3----3--3--------------------|



------------------------------------|----------------------------------||
------------------------------------|----------------------------------||
------------------------------------|----------------------------------||
------------------------------------|--5----5----5--4--3----3----3--3--||
-----------2-----1------2--3--------|--5----5----5--4--3----3----3--3--||
--0--0--0-----0---------------2--0--|--3----3----3--2--1----1----1--1--||

  Visit MetalTabs.com for more metal tablature

bottom separator

Contact Us | Privacy Policy | Disclaimer | Legal Notice
Copyright © 2001-2014 MetalTabs.com. All Rights Reserved.