top separator

Home

Forum

What's New

Submit a Tab

FAQ

Links

Contact Us

Link to Us

MuSpy.com

MetalTabs.com logo

Bands

0-9

A

B

C

D

E

F

G

H

I

J

K

L

M

N

O

P

Q

R

S

T

U

V

W

X

Y

Z

Search

What

Where
 

Illdisposed - "Submit" Guitar Tab

Plain Text Version
More Illdisposed Tabs

Hits: 3832
Updated: 2005-03-16 13:30:36

 

By:

Daniil

sendpm.gif

email.gif

Important note
This tab is available online because we obtained explicit permission from Illdisposed or their label.


#----------------------------------PLEASE NOTE---------------------------------#
#This file is the author's own work and represents their interpretation of the #
#song. You may only use this file for private study, scholarship, or research. #
#Unless specified otherwise, this is NOT an official tab from the band members.#
#------------------------------------------------------------------------------#

  Visit MetalTabs.com for more metal tablature
  
ILLDISPOSED-Submit
Submit-1995
Transcribed by Daniil Laletin
e-mail: dlaletin@mail.ru
version 1.0 January 2005

All corrections are welcome.

 " - tremolo
 / - slide down
 \ - slide up
 . - palm mute
 ~ - long sound
 x - rest
 p - pull off
 h - hammer on
 tr - trill
 () - ghost note, sustained note
 * - artificial harmonics
 b - bend

================================

 Intro
|---------------------------------------------|
|---------------------------------------------|
|--------------------then guitar noises comes-|
|----------2"---------------------------------|
|----------2"---------------------------------|
|-fade in--0"---------------------------------|



 Riff 1           1,2,3                 4
|---------|------------|-----------------|
|---------|------------|-----------------|
|---------|------------|-----------------|
|---------|------------|-----------------|
|---------|------------|-3"--2"--0"------|
|-0h5-0h5-|-3~-0"------|-------------3"--|



 Riff 2a
|-----------------------------------------------|
|-----------------------------------------------|
|-----------------------------------------------|
|-----------------------------------------------|
|------------2-2-2-2-2-2-2-2--------------------|
|-0h5-0h5-3~-0-0-0-0-0-0-0-0-0h5-0h5-3~-0"------|



 Riff 2b
|-----------------------------------------------|
|-----------------------------------------------|
|-----------------------------------------------|
|-----------------------------------------------|
|------------2-2-2-2-2-2-2-2--------------------|
|-0h5-0h5-3~-0-0-0-0-0-0-0-0-0h5-0h5-3~-0"------|

|------------------------------------------------------------|
|------------------------------------------------------------|
|------------------------------------------------------------|
|------------------------------------------------------------|
|------------2-2-2-2-2-2-2-2---------3"--2"--0"--------------|
|-0h5-0h5-3~-0-0-0-0-0-0-0-0-0h5-0h5-------------3"--0h5-0h5-|



 Riff 3
|-----------------------------------------------------------------|
|-----------------------------------------------------------------|
|-----------------------------------------------------------------|
|-----------5-7-7-----------7-9-9-----------5-7-7-----------7-9-9-|
|-2-22-22-2-3-5-5-2-22-22-2-5-7-7-2-22-22-2-3-5-5-5-55-55-5-5-7-7-|
|-0-00-00-0-------0-00-00-0-------0-00-00-0-------3-33-33-3-------|
    .  .            .  .            .  .            .  .



 Riff 4
|-----------------------------------------------------------------|
|-----------------------------------------------------------------|
|-----------------------------------------------------------------|
|-----5"--4"----------5"--4"--5"------7"--5"--4"--9"--4"--5"--7"--|gtr 1
|-------------2"--------------------------------------------------|
|-0"--------------3"--------------5"------------------------------|
|
|-----------------------------------------------------------------|
|-----------------------------------------------------------------|
|-----------------------------------------------------------------|
|-----5"--4"----------5"--4"--5"------7"--5"--4"------4"--5"--7"--|gtr 2
|-------------2"--------------------------------------------------|
|-0"--------------3"--------------5"--------------7"--------------|




 Riff 5
|-------------------------------------|
|-------------------------------------|
|-------------------------------------|
|-------------------------------------|
|-2--------5--------7--------9--------|
|-0--------3--------5--------7--------|



 Riff 6
|---------------------------------------|   |-----|
|---------------------------------------|   |-----|Ending of
|---------------------------------------|   |-----|Riff 6
|---------------------------------------|   |-----|
|-------2----0--02-3-------5----3--23-5-|   |-5~--|
|-000000-0000-00-----333333-3333-33-----|   |-3~--|




 Riff 2c
|-----------------------------------------------|
|-----------------------------------------------|
|-----------------------------------------------|
|---------5~------------------------------------|
|------------2-2-2-2-2-2-2-2--------------------|
|-0h5-0h5-3~-0-0-0-0-0-0-0-0-0h5-0h5-3~-0"------|



 Riff 2d
|-----------------------------------------------|
|-----------------------------------------------|
|-----------------------------------------------|
|---------5~------------------------------------|
|------------2-2-2-2-2-2-2-2--------------------|
|-0h5-0h5-3~-0-0-0-0-0-0-0-0-0h5-0h5-3~-0"------|

|---------------------------------------------------------------|
|---------------------------------------------------------------|
|---------------------------------------------------------------|
|---------5~-------------------------5"--4"--2"-----------------|
|------------2-2-2-2-2-2-2-2---------3"--2"--0"--5"----------5\-|
|-0h5-0h5-3~-0-0-0-0-0-0-0-0-0h5-0h5-------------3"--0h5-0h5-3\-|

 End of the song.

  Visit MetalTabs.com for more metal tablature

bottom separator

Contact Us | Privacy Policy | Disclaimer | Legal Notice
Copyright © 2001-2014 MetalTabs.com. All Rights Reserved.