top separator

Home

Forum

What's New

Submit a Tab

FAQ

Links

Contact Us

Link to Us

MetalTabs.com logo

Bands

0-9

A

B

C

D

E

F

G

H

I

J

K

L

M

N

O

P

Q

R

S

T

U

V

W

X

Y

Z

Search

What

Where
 

Coroner - "Last Entertainment" Guitar Tab

Plain Text Version
More Coroner Tabs

Hits: 5038
Rated: 5.00 out of 5 (3 votes)
Updated: 2007-01-26 23:52:43

 

By:

MetalThrashingMad

sendpm.gif

email.gif

Co-authored by:

Sycophant

sendpm.gif

email.gif

Important note
We did our best to reach Coroner and ask for their permission to publish this tab. Unfortunately they did not respond to our requests or we could not find a way to contact them. This tab is available online until Coroner tells us to take it down.


#----------------------------------PLEASE NOTE---------------------------------#
#This file is the author's own work and represents their interpretation of the #
#song. You may only use this file for private study, scholarship, or research. #
#Unless specified otherwise, this is NOT an official tab from the band members.#
#------------------------------------------------------------------------------#

  Visit MetalTabs.com for more metal tablature
  
LAST ENTERTAINMENT
                             As recorded by Coroner
                       (From the 1989 Album NO MORE COLOR)
                        Copyright (c) 1989 Noise Records


Words and Music by Coroner
Arranged by Coroner
Transcribed by Steve Rubaszek
Version 1.1 - Jan 11 2007


Gtr I (E A D G B E) - 'Rhythm Guitar'
Gtr II (E A D G B E) - 'Solo'
Gtr III (E A D G B E) - 'Fill'

 0:00
  Q=175
 9/4
  Gtr I
|-----|
|-----|
|-----|
|-----|
|-----|
|-----|


   0:07
   9/4
||---------------------------|---------------------------||
||o--------------------------|--------------------------o||
||---------------------------|---------------------------||
||--7--------(7)--------(7)--|-7--------(7)--------(7)---||
||o-7--------(7)--------(7)--|-6--------(6)--------(6)--o||
||--5--------(5)--------(5)--|-5--------(5)--------(5)---||


   0:21
    Q=170
      PM|   PM|   PM|   PM|   PM  PM  PM
||--------------------------------------|
||o-------------------------------------|
||--------------------------------------|
||--7-----7-----7-----7-----7---7---7---|
||o-7-7-7-7-7-7-7-7-7-7-7-7-7-7-7-7-7-7-|
||--5-5-5-5-5-5-5-5-5-5-5-5-5-5-5-5-5-5-|


      PM  PM|   PM|   PM|   PM  PM  PM
                                        4x
|---------------------------------------||
|--------------------------------------o||
|---------------------------------------||
|-7-7-7-7-7-7-7-7-7-7-7-7-7-7-7-7-7-7---||
|-6-6-6-6-6-6-6-6-6-6-6-6-6-6-6-6-6-6--o||
|---------------------------------------||


 0:48
 5/4
  Gtr I
    PM|    PM|   PM   PM    PM|    PM|   PM   PM
|-----------------------|-----------------------|
|-----------------------|-----------------------|
|-----------------------|-9-----10-----7---10---|
|-9-----10-----7---10---|-9-----10-----7---10---|
|-7------8-----5----8---|-7------8-----5----8---|
|---0-0----0-0---0----0-|---0-0----0-0---0----0-|


    PM|    PM|   PM   PM    PM|    PM|   PM   PM
|-----------------------|-7------8-----7----8---|
|-8------9-----6----9---|-8------9-----6----9---|
|-7-----10-----7---10---|-7-----10-----7---10---|
|-9-----10-----7---10---|-9-----10-----7---10---|
|-7------8-----5----8---|-7------8-----5----8---|
|---0-0----0-0---0----0-|---0-0----0-0---0----0-|


 4/2
|-------------|
|-------------|
|-------------|
|-------------|
|-------------|
|-------------|


   0:58
   9/4
      PM|   PM|   PM|   PM|   PM  PM  PM
||--------------------------------------|
||o-------------------------------------|
||--------------------------------------|
||--7-----7-----7-----7-----7---7---7---|
||o-7-7-7-7-7-7-7-7-7-7-7-7-7-7-7-7-7-7-|
||--5-5-5-5-5-5-5-5-5-5-5-5-5-5-5-5-5-5-|


      PM  PM|   PM|   PM|   PM  PM  PM
|--------------------------------------||
|-------------------------------------o||
|--------------------------------------||
|-7-7-7-7-7-7-7-7-7-7-7-7-7-7-7-7-7-7--||
|-6-6-6-6-6-6-6-6-6-6-6-6-6-6-6-6-6-6-o||
|--------------------------------------||


      PM----|   PM----|   PM----|   PM|       PM|   PM|   PM|
||------------------------------------------------------------
||o-----------------------------------------------------------
||------------------------------------------------------------
||--7---------7---------7---------7---------7-----7-----7-----
||o-7-7-7-7-7-7-7-7-7-7-7-7-7-7-7-7-7-7-7-7-7-7-7-7-7-7-7-7-7-
||--5-5-5-5-5-5-5-5-5-5-5-5-5-5-5-5-5-5-5-5-5-5-5-5-5-5-5-5-5-


    PM----|   PM----|   PM----|   PM    PM  PM|   PM|   PM|
|------------------------------------------------------------||
|-----------------------------------------------------------o||
|------------------------------------------------------------||
|-7---------7---------7---------7---------7-----7-----7------||
|-6-6-6-6-6-6-6-6-6-6-6-6-6-6-6-6-6-6-6-6-6-6-6-6-6-6-6-6-6-o||
|------------------------------------------------------------||


 5/4
  Gtr I
    PM----|    PM----|   PM   PM    PM|    PM|   PM   PM
|-------------------------------|-----------------------|
|-------------------------------|-----------------------|
|-------------------------------|-9-----10-----7---10---|
|-9---------10---------7---10---|-9-----10-----7---10---|
|-7----------8---------5----8---|-7------8-----5----8---|
|---0-0-0-0----0-0-0-0---0----0-|---0-0----0-0---0----0-|


    PM|    PM|   PM   PM    PM|    PM|   PM   PM
|-----------------------|-7------8-----7----8-----|
|-8------9-----6----9---|-8------9-----6----9-----|
|-7-----10-----7---10---|-7-----10-----7---10-----|
|-9-----10-----7---10---|-9-----10-----7---10-----|
|-7------8-----5----8---|-7------8-----5----8-----|
|---0-0----0-0---0----0-|---0-0----0-0---0----0---|


   1:33
   4/4
    Gtr II
                                         8x
||--19p15----------15-19p15----------15--||
||o-------17----17----------17----17----o||
||-----------16----------------16--------||
||---------------------------------------||
||o-------------------------------------o||
||---------------------------------------||

                                        10x
||--17p13----------13-17p13----------17--||
||o-------15----15----------15----15----o||
||-----------14----------------14--------||
||---------------------------------------||
||o-------------------------------------o||
||---------------------------------------||





||--15p11----------11-15p11----------11----||
||o-------13----13----------13----13------o||
||-----------12----------------12----------||
||-----------------------------------------||
||o---------------------------------------o||
||-----------------------------------------||


   4/4
    Gtr II
                                         8x
||--19p15----------15-19p15----------15--||
||o-------17----17----------17----17----o||
||-----------16----------------16--------||
||---------------------------------------||
||o-------------------------------------o||
||---------------------------------------||


                                        10x
||--17p13----------13-17p13----------17--|
||o-------15----15----------15----15----o|
||-----------14----------------14--------|
||---------------------------------------|
||o-------------------------------------o|
||---------------------------------------|

|-19p15----------15-15p11----------11----|
|-------17----17----------13----13-------|
|----------16----------------12----------|
|----------------------------------------|
|----------------------------------------|
|----------------------------------------|

                                    Q
                                    G
|-----------------------------------|
|-----------------------------------|
|-----------------------------------|
|-----------------------------------|
|-----------------------------------|
|-----------------------------------|
|
| Gtr II
|-15p11----------11-13p9----------9-|
|-------13----13---------11----11---|
|----------12---------------10------|
|-----------------------------------|
|-----------------------------------|
|-----------------------------------|


 2:04
 =90
 4/4
 tr I
|-----------------------------|---------------------|
|-----------------------------|---------------------|
|-----------------------------|---------------------|
|--7------7--------8--11---10-|-7------5-4----------|
|--5--5-5-5---5--5-6---9----8-|-5--5-5-----6-5tr6---|
|-----------------------------|---------------------|
|
|-10--------(10)-----(10)\----|---------------------|
|-----------------------------|---------------------|
|-----------------------------|---------------------|
|-----------------------------|---------------------|
|-----------------------------|---------------------|
|-----------------------------|---------------------|


  Gtr I
|----------------------|--------------------------|
|----------------------|--------------------------|
|----------------------|--------------------------|
|-7------7-----8-11-10-|-7------5-4--------[7]----|
|-5--5-5-5-5-5-6--9--8-|-5--5-5-----6-5tr6--------|
|----------------------|--------------------------|


|--------------------|--------------------|
|--------------------|--------------------|
|----------------6-5-|--------------------|
|-7------7-----8-4-3-|-7------5-4---------|
|-5--5-5-5-5-5-6-----|-5--5-5-----6-5tr6--|
|--------------------|--------------------|


|--------------------|------------------|-----------------|
|--------------------|------------------|-----------------|
|----------------6-5-|------------------|-----------------|
|-7------7-----8-4-3-|-7------5-4-----7-|-6-----6-5-----4-|
|-5--5-5-5-5-5-6-----|-5--5-5-----6-5---|---8-7-----7-6---|
|--------------------|------------------|-----------------|


 2:30
  Q=180
  Gtr I
   PM-------------------------------------------
|-------------------------|--------------------|
|-------------------------|--------------------|
|-------------------------|--------------------|
|-------------------------|--------------------|
|-12-------12-------12----|-11-----11-----11---|
|-10-10-10-10-10-10-10-10-|--9-9-9--9-9-9--9-9-|
|
| Gtr III
|-------------------------|--------------------|
|-------------------------|--------------------|
|----10-------10----------|--9-6----9-6----9---|
|-------------------------|--------------------|
|-------------------------|--------------------|
|-------------------------|--------------------|


 ------------------------------------|
|--------------------|-----------------|
|--------------------|-----------------|
|--------------------|-----------------|
|-10-----10-----10---|-9-----9-----9---|
|--8-8-8--8-8-8--8-8-|-7-7-7-7-7-7-7-7-|
|--------------------|-----------------|
|
|--------------------|-----------------|
|----9------9--------|-8-5---8-5---8---|
|--------------------|-----------------|
|--------------------|-----------------|
|--------------------|-----------------|
|--------------------|-----------------|


  PM--------------------------------------------------------------------|
|-----------------|-----------------|-------------------|-----------------|
|-----------------|-----------------|-7------7------7---|-6-----6-----6---|
|-8-----8-----8---|-7-----7-----7---|-4--4-4-4--4-4-4-4-|-3-3-3-3-3-3-3-3-|
|-6-6-6-6-6-6-6-6-|-5-5-5-5-5-5-5-5-|-------------------|-----------------|
|-----------------|-----------------|-------------------|-----------------|
|-----------------|-----------------|-------------------|-----------------|
|
|---7-----7-------|-6-3---6-3---6---|---10-----10-------|-9-6---9-6---9---|
|-----------------|-----------------|-------------------|-----------------|
|-----------------|-----------------|-------------------|-----------------|
|-----------------|-----------------|-------------------|-----------------|
|-----------------|-----------------|-------------------|-----------------|
|-----------------|-----------------|-------------------|-----------------|


   PM-------------------------------------------
|-------------------------|--------------------|
|-------------------------|--------------------|
|-------------------------|--------------------|
|-------------------------|--------------------|
|-12-------12-------12----|-11-----11-----11---|
|-10-10-10-10-10-10-10-10-|--9-9-9--9-9-9--9-9-|
|
|-------------------------|--------------------|
|-------------------------|--------------------|
|----10-------10----------|--9-6----9-6----9---|
|-------------------------|--------------------|
|-------------------------|--------------------|
|-------------------------|--------------------|


 ------------------------------------|
|--------------------|-----------------|
|--------------------|-----------------|
|--------------------|-----------------|
|-10-----10-----10---|-9-----9-----9---|
|--8-8-8--8-8-8--8-8-|-7-7-7-7-7-7-7-7-|
|--------------------|-----------------|
|
|--------------------|-----------------|
|----9------9--------|-8-5---8-5---8---|
|--------------------|-----------------|
|--------------------|-----------------|
|--------------------|-----------------|
|--------------------|-----------------|


  PM------------------------------|
|-----------------|-----------------|----------------|-------------|
|-----------------|-----------------|-7-----6----5---|-4----3--3---|
|-8-----8-----8---|-7-----7-----7---|-4-----3----2---|-1----0--0---|
|-6-6-6-6-6-6-6-6-|-5-5-5-5-5-5-5-5-|----------------|-------------|
|-----------------|-----------------|----------------|-------------|
|-----------------|-----------------|----------------|-------------|
|
|---7-----7-------|-6-3---6-3---6---|---10----9----8-|----7----6---|
|-----------------|-----------------|----------------|-------------|
|-----------------|-----------------|----------------|-------------|
|-----------------|-----------------|----------------|-------------|
|-----------------|-----------------|----------------|-------------|
|-----------------|-----------------|----------------|-------------|


   2:52
    Gtr I
||--------------------------|
||o-------0-----------------|
||------9-----6------5------|
||----9---------6------5----|
||o-7-------7-----4------3--|
||--------------------------|


      PM----|     PM----|         PM----|     PM----|
|--------------------------||--------------------------|
|-------------------------o||--------------------------|
|--------------------------||--------------------------|
|-13----------10-----------||-13----------10-----------|
|-11-----------8----------o||-11-----------8-----------|
|-----0-0-0-0-----0-0-0-0--||-----0-0-0-0-----0-0-0-0--|


                                PM----|     PM----|
||------------------------|--------------------------||
||o-------0---------------|-------------------------o||
||------9-----6-----5-----|--------------------------||
||----9---------6-----5---|-13----------10-----------||
||o-7-------7-----4-----3-|-11-----------8----------o||
||------------------------|-----0-0-0-0-----0-0-0-0--||


      PM----|     PM----|
|--------------------------|
|--------------------------|
|--------------------------|
|-13----------10-----------|
|-11-----------8-----------|
|-----0-0-0-0-----0-0-0-0--|


                                PM----|     PM----|
||------------------------|--------------------------||
||o-------0---------------|-------------------------o||
||------9-----6-----5-----|--------------------------||
||----9---------6-----5---|-13----------10-----------||
||o-7-------7-----4-----3-|-11-----------8----------o||
||------------------------|-----0-0-0-0-----0-0-0-0--||


       PM----|     PM----|
|--------------------------|
|--------------------------|
|--------------------------|
|--13----------10----------|
|--11-----------8----------|
|------0-0-0-0-----0-0-0-0-|


      PM----|     PM----|       PM----|     PM----|
|-------------------------|--------------------------
|-------------------------|--------------------------
|-------------------------|--------------------------
|-13----------10----------|-13----------10-----------
|-11-----------8----------|-11-----------8-----------
|-----0-0-0-0-----0-0-0-0-|-----0-0-0-0-----0-0-0-0--


||--------------------||-||-------------------||-------*|
||o------------------o||-||o-----------------o||-------*|
||--------------------||-||--7S5-8S5-7S5-8S5--||-4-----*|
||--12--10--13--10----||-||--5S3-6S3-5S3-6S3--||-2-----*|
||o-10---8--11---8---o||-||o-----------------o||-------*|
||--------------------||-||-------------------||-------*|


Tablature Legend
----------------
 h   - hammer-on
 p   - pull-off
 b   - bend
 pb  - pre-bend
 r   - bend release (if no number after the r, then release immediately)
 /  - slide into or out of (from/to "nowhere")
 s   - legato slide
 S   - shift slide
<n>  - natural harmonic
[n]  - artificial harmonic
n(n) - tapped harmonic
 ~   - vibrato
 tr  - trill
 T   - tap
 TP  - trem. picking
 PM  - palm muting
n/  - tremolo bar dip; n = amount to dip
 n  - tremolo bar down
 n/  - tremolo bar up
/n  - tremolo bar inverted dip
 =   - hold bend; also acts as connecting device for hammers/pulls
 <>  - volume swell (louder/softer)
 x   - on rhythm slash represents muted slash
 o   - on rhythm slash represents single note slash

Misc Legend
-----------
 |  - bar
||  - double bar
||o - repeat start
o|| - repeat end
*|  - double bar (ending)
 :  - bar (freetime)
 $  - Segno
 &  - Coda
Tempo markers - <E/E./Q/Q./H/H.> = BPM(8/16=s8/s16),
where s8 = swing 8ths, s16 = swing 16ths

  Visit MetalTabs.com for more metal tablature

bottom separator

Contact Us | Privacy Policy | Disclaimer | Legal Notice
Copyright © 2001-2014 MetalTabs.com. All Rights Reserved.