top separator

Home

Forum

FAQ

Contact Us

Link to Us

MetalTabs.com logo

Bands

0-9

A

B

C

D

E

F

G

H

I

J

K

L

M

N

O

P

Q

R

S

T

U

V

W

X

Y

Z

Vader - "Reign Forever World" Guitar Tab

Plain Text Version
More Vader Tabs

Hits: 3961
Rated: 4.60 out of 5 (5 votes)
Updated: 2005-03-16 12:58:12

By:

Yura


#----------------------------------PLEASE NOTE---------------------------------#
#This file is the author's own work and represents their interpretation of the #
#song. You may only use this file for private study, scholarship, or research. #
#Unless specified otherwise, this is NOT an official tab from the band members.#
#------------------------------------------------------------------------------#

  Visit MetalTabs.com for more metal tablature
  
--- V A D E R ---
                            "Reign Forever World"
                     From album: "Reign Forever World"
                     Copyright Metal Blade 2001 
                     Version: 1.0 (December 2004)
                     Transcribed by: Yura Kowalchuk
                     Contact:[yura@grindcore.net]
                             [yura_kowalchuk@mail.ru]
                     HOME PAGE:http://www.blood-scrapes.nm.ru

                            TABULATURE LEGEND:
                   " - tremolo             h - hammer on
                   ~ - vibrato             \ - slide down
                   p - pull off            / - slide down
                  tr - tremolo picking     ^ - pinch harmonics
                   = - sustained note      b - bend string
                p.m. - palm muting         t - tapping

Tuning is D [D, G, C, F, A, D]

COMMENT: There are three guitars in some riffs. It sounds very harmonized.
They don't use third guitar in the stage. The both guitars are in the left
(guitar 1) and in the right (guitar 2) speakers and third guitar layed on
both tracks and it has less volume then main guitars.

[Intro]
-|------------------------------------------------------------------------|-
-|------------------------------------------------------------------------|-
-|------------------------------------------------------------------------|-
-|------------------------------------------------------------------------|-
-|-33330000--------4444------------------33330000-------------------------|-
-|---------11111111----222222222222-[x3]---------111111113333333355553333-|-
 |                                                                        |
-|------------------------------------------------------------------------|-
-|------------------------------------------------------------------------|-
-|------------------------------------------------------------------------|-
-|------------------------------------------------------------------------|-
-|-33330000--------4444------------------33330000-------------------------|-
-|---------11111111----222222222222-[x3]---------111111113333333355553333-|-

-|------------------------------------------------------------------------|-
-|------------------------------------------------------------------------|-
-|------------------------------------------------------------------------|-
-|------------------------------------------------------------------------|-
-|-33330000--------4444------------------33330000-------------------------|-
-|---------11111111----222222222222-[x3]---------111111113333333355553333-|-
 |                                                                        |
-|------------------------------------------------------------------------|-
-|------------------------------------------------------------------------|-
-|------------------------------------------------------------------------|-
-|------------------------------------------------------------------------|-
-|-33330000--------4444444444444444------33330000-------------------------|-
-|---------11111111-----------------[x3]---------111111113333333355553333-|-

[Part 1a]
-|--------------------------------------------|--------------------------
-|--------------------------------------------|--------------------------
-|----------------------------------------^---|--------------------------
-|----4/5----------------------4/5----3/4\3~~-|----4/5-------------------
-|-4--4/5--2--3/5----2------4--4/5--2---------|-4--4/5--2--3/5----2------
-|-2--2/3--0--1/3----0-[x3]-2--2/3--0---------|-2--2/3--0--1/3----0-[x3]-
 | .       .         .      .       .         | .       .         .
-|--------------------------------------------|--------------------------
-|--------------------------------------------|--------------------------
-|--------------------------------------------|--------------------------
-|----4/5----------------------4/5--------^---|----4/5-------------------
-|-4--4/5--2--3/5--4-2------4--4/5--2-3/4\3~~-|-4--4/5--2--3/5--4-2------
-|-2--2/3--0--1/3--2-0-[x3]-2--2/3--0---------|-2--2/3--0--1/3--2-0-[x3]-
   .       .       . .      .       .           .       .       . .

------------------------|
------------------------|
------------------------|
----4/5-----------------|
-4--4/5--2--3--5--4--2--|
-2--2/3--0--1--3--2--0--|
 .       .  .  .  .  .  |
------------------------|
------------------------|
------------------------|
----4/5-----------------|
-4--4/5--2--3--5--4--2--|
-2--2/3--0--1--3--2--0--|
 .       .  .  .  .  .

[Riff 2a]
-|------------[x3]-|-----------------|------------[x3]-|-----------------|
-|-----------------|-----------------|-----------------|-----------------|
-|-----------------|-----------------|-----------------|-----------------|
-|-----------------|-----------------|-----------^-----|-----------------|
-|---2---3---4-----|---2---3---------|---2---3---4-----|---2---3---------|
-|-2---0---1---3-0-|-2---0---1-3-2-0-|-2---0---1---3-0-|-2---0---1-3-2-0-|
 | . . . . . . . . | . . . . . . . . | . . . . .   . . | . . . . . . . . |
-|------------[x3]-|-----------------|------------[x3]-|-----------------|
-|-----------------|-----------------|-----------------|-----------------|
-|-----------------|-----------------|-----------------|-----------------|
-|-----------------|-----------------|-----------------|-----------------|
-|---2---3---4-----|---2---3---------|---2---3---4-----|---2---3---------|
-|-2---0---1---3-0-|-2---0---1-3-2-0-|-2---0---1---3-0-|-2---0---1-3-2-0-|
   . . . . . . . .   . . . . . . . .   . . . . . . . .   . . . . . . . .

[Outro 1]
-|----------------------------------|----------------------------------|
-|----------------------------------|----------------------------------|
-|----------------------------------|----------------------------------|
-|----------------------------------|----------------------------------|
-|---------33330000-----------------|---------33330000-----------------|
-|-22222222--------1111111111111111-|-22222222--------1111111133330000-|

[Riff 2b]
-|------------[x2]-|------------[x2]-|
-|-----------------|-----------------|
-|-----------------|-----------------|
-|-----------------|-----------^-----|
-|---2---3---4-----|---2---3---4-----|
-|-2---0---1---3-0-|-2---0---1---3-0-|
 | . . . . . . . . | . . . . .   . . |
-|------------[x2]-|------------[x2]-|
-|-----------------|-----------------|
-|-----------------|-----------------|
-|-----------------|-----------------|
-|---2---3---4-----|---2---3---4-----|
-|-2---0---1---3-0-|-2---0---1---3-0-|
   . . . . . . . .   . . . . . . . .

[Outro 2] /WITH OUT DRUMMING FILL/
-|---------------[x2]-|---------------[x2]-|
-|--------------------|--------------------|
-|--------------------|--------------------|
-|--------------------|--------------------|
-|--------------------|--------------------|
-|-2"..-3"2"1"..-3"0"-|-2"..-3"2"1"..-3"0"-|
 |                    |                    |
-|---------------[x2]-|---------------[x2]-|
-|--------------------|--------------------|
-|--------------------|--------------------|
-|--------------------|--------------------|
-|--------------------|--------------------|
-|--------------------|-2"..-3"2"1"..-3"0"-|

[Riff 3a] /both guitars/
-|----------------------------------------------|---------------[x4]-|
-|----------------------------------------------|--------------------|
-|----------------------------------------------|--------------------|
-|----------------------------------------------|--------------------|
-|----------------------------------------------|--------------------|
-|-2-"..-3"2"1"..-3"0"-[x3]--2"..-3"2"1"..-3"..-|-2"..-3"2"1"..-3"0"-|

[Riff 4a]
-|---------------------------------------|--------------------------------8~-|
-|----------------5~---------------------|-----------------5~----------------|
-|-----------------------7~..-6h7p6-4~..-|------------------------7~---------|
-|---------------------------------------|-----------------------------------|
-|-4==-4-4-4--4-4----5-4-----------------|-4-4--4-4-4--4-4----5-4------------|
-|-2==-2-2-2--2-2----3-2-----------------|-2-2--2-2-2--2-2----3-2------------|
 |     . . .  . .    . .                 | . .  . . .  . .    . .            |
-|---------------------------------------|-----------------------------------|
-|---------------------------------------|-----------------------------------|
-|---------------------------------------|--------------------------------^--|
-|----------------7~-----5~..-7--5-------|-----------------7~-----5---7-5-7~-|
-|-4==-4-4-4--4-4----5-4------------7~..-|-4-4--4-4-4--4-4----5-4------------|
-|-2==-2-2-2--2-2----3-2-----------------|-2-2--2-2-2--2-2----3-2------------|
       . . .  . .    . .      .  .         . .  . . .  . .    . .
CHORDS (GTR 3):          G5         E5     F#5                    G5      A5

[Outro 3]
-|------------------------------------|
-|------------------------------------|
-|------------------------------------|
-|------------------------------------|
-|------------------------------------|
-|-2"....----3"2"3"..---5"3"0"-5"3"0"-|
 |                                    |
-|------------------------------------|
-|------------------------------------|
-|------------------------------------|
-|-----7"..--5"4"---------------------|
-|---------------5"..---7-------------|
-|-2"..-----------------5-------------|
                        .

[Riff 3b (x2)] /both guitars/
-|----------------------------------------------|
-|----------------------------------------------|
-|----------------------------------------------|
-|----------------------------------------------|
-|----------------------------------------------|
-|-2-"..-3"2"1"..-3"0"-[x3]--2"..-3"2"1"..-3"..-|

[Riff 4b]
-|---------------------------------------|-----------------------------------|
-|----------------5~---------------------|-----------------5~----------------|
-|-----------------------7~..-6h7p6-4~..-|------------------------7~------9~-|
-|---------------------------------------|-----------------------------------|
-|-4==-4-4-4--4-4----5-4-----------------|-4-4--4-4-4--4-4----5-4------------|
-|-2==-2-2-2--2-2----3-2-----------------|-2-2--2-2-2--2-2----3-2------------|
 |     . . .  . .    . .                 | . .  . . .  . .    . .            |
-|---------------------------------------|-----------------------------------|
-|---------------------------------------|-----------------------------------|
-|---------------------------------------|--------------------------------^--|
-|----------------7~-----5~..-7--5-------|-----------------7~-----5---7-5-7~-|
-|-4==-4-4-4--4-4----5-4------------7~..-|-4-4--4-4-4--4-4----5-4------------|
-|-2==-2-2-2--2-2----3-2-----------------|-2-2--2-2-2--2-2----3-2------------|
       . . .  . .    . .      .  .         . .  . . .  . .    . .
CHORDS (GTR 3):          G5         E5     F#5                    G5      A5

[Riff 5]
-|-------------------------|-------------------------|
-|-------------------------|-------------------------|
-|-------------------------|-------------------------|
-|-------------------------|-------------------------| /GTR 1/
-|--------5"....-4"....----|--------5"....-7"....----|
-|-6"....------------------|-6"....------------------|
 |                         |                         |
-|-------------------------|-------------------------|
-|---------------6"..-5"..-|-------------------------|
-|--------7"....-----------|-------------------------|
-|-8"....------------------|-8"....-5"....-7"....----| /GTR 2/
-|-------------------------|-------------------------|
-|-------------------------|-------------------------|
 |                         |                         |
-|-------------------------|-------------------------|
-|-6"....--------6"..-5"..-|-6"....------------------|
-|--------7"....-----------|--------7"....-9"..-6"..-|
-|-------------------------|-------------------------| /GTR 3/
-|-------------------------|-------------------------|
-|-------------------------|-------------------------|

[Riff 6a] /FAST PICKING/
-|--------------------------------------------------------------------|
-|--------------------------------------------------------------------|
-|--------------------------------------------------------------------|
-|----------------------------------------------------7-9-10-9-7------|
-|---------------------------------------------7-9-10------------10-9-|
-|-2-2-3-2-4-2-5-2-3-2-4-2-3-2-5-2-2-2-4-0-0-0------------------------|
   . . . . . . . . . . . . . . . . . . . . . . . . .  . . .  . . .  .

[Riff 6b]
-|--------------------------------------------------------------------|
-|--------------------------------------------------------------------|
-|--------------------------------------------------------------------|
-|----------------------------------------------------7-9-10-9-7------|
-|---------------------------------------------7-9-10------------10-9-|
-|-2-2-3-2-4-2-5-2-3-2-4-2-3-2-5-2-2-2-4-0-0-0------------------------|
 | . . . . . . . . . . . . . . . . . . . . . . . . .  . . .  . . .  . |
-|--------------------------------------------------------------------|
-|--------------------------------------------------------------------|
-|----------------------------------------------------7-9-10-9-7------|
-|---------------------------------------------7-9-10------------10-9-|
-|--------------------------------------------------------------------|
-|-2-2-3-2-4-2-5-2-3-2-4-2-3-2-5-2-2-2-4-0-0-0------------------------|
   . . . . . . . . . . . . . . . . . . . . . . . . .  . . .  . . .  .

[Riff 7 (x2)]
-|---------------------------------------------------------------|
-|---------------------------------------------------------------|
-|---------------------------------------------------------------|
-|---------------------------------------------------------------|
-|---------------------------------------------------------------|
-|-2-2-2-2-2--2-2-2-2-2---2-2-2-2-2--1-1-1-1-1-1-1-1-1-1-1-1-1-1-|

[Riff 8a (x4)] /UNDER SOLO 1/           [Outro]
-|--------------------------------|  -|----------------------|
-|--------------------------------|  -|----------------------|
-|--------------------------------|  -|----------------------|
-|--------------------------------|  -|----------------------|
-|--------------------------------|  -|-4--2--5~~--7---8====-|
-|-2-2-2-2.......-0-0-0-0........-|  -|-2--0--3~~--5---6====-|
   . . . .        . . . .                          .

[Part 1b]
-|-------------------------------------------------|
-|-------------------------------------------------|
-|-------------------------------------------------|
-|----4/5----------------------4/5-----------------|
-|-4--4/5--2--3/5----2------4--4/5--2--3--5--4--2--|
-|-2--2/3--0--1/3----0-[x3]-2--2/3--0--1--3--2--0--|
 | .       .         .      .       .  .  .  .  .  |
-|-------------------------------------------------|
-|-------------------------------------------------|
-|-------------------------------------------------|
-|----4/5----------------------4/5-----------------|
-|-4--4/5--2--3/5--4-2------4--4/5--2--3--5--4--2--|
-|-2--2/3--0--1/3--2-0-[x3]-2--2/3--0--1--3--2--0--|
   .       .       . .      .       .  .  .  .  .

[Outro 4]
-|------------[x3]-|-----------------|--
-|-----------------|-----------------|--
-|-----------------|-----------------|--
-|-----------------|-----------------|--
-|---2---3---4-----|---2---3---------|--
-|-2---0---1---3-0-|-2---0---1-3-2-0-|--
   . . . . . . . .   . . . . . . . .

[...continue]
-|----------------------------------|----------------------------------|
-|----------------------------------|----------------------------------|
-|----------------------------------|----------------------------------|
-|----------------------------------|----------------------------------|
-|---------33330000-----------------|---------33330000-----------------|
-|-22222222--------1111111111111111-|-22222222--------1111111111111111-|

[RIFF 6a] [RIFF 6b] [RIFF 8a] /UNDER SOLO 2/

[Riff 8b (x2)]                                [Out]
-|---------------------------------------|  -|---------------|
-|---------------------------------------|  -|---------------|
-|---------------------------------------|  -|---------------|
-|---------------------------------------|  -|---------------|
-|---------------------------------------|  -|-5--5--5--7===-|
-|-2-2-2-2...-5-5-5-5...-0-0-0-0........-|  -|-3--3--3--5===-|
   . . . .    . . . .    . . . .               .  .  .

[RIFF 7 (x4)]

[Ending] /play on last repaeting of Riff 7/
-|---------------------------------
-|---------------------------------
-|---------------------------------
-|--------7-9-10-9-7------11~~~~---
-|-7-9-10------------10-9-9~~~~~...
-|---------------------------------
 | . . .  . . .  . . .  .
-|---------------------------------
-|---------------------------------
-|--------7-9-10-9-7---------------
-|-7-9-10------------10-9----------
-|------------------------^--------
-|------------------------2~~~~~...
   . . .  . . .  . . .  .

END OF SONG

  Visit MetalTabs.com for more metal tablature

bottom separator

Contact Us | Privacy Policy | Disclaimer
Copyright © 2001-2014 MetalTabs.com. All Rights Reserved.