top separator

Home

Forum

What's New

Submit a Tab

FAQ

Links

Contact Us

Link to Us

MuSpy.com

MetalTabs.com logo

Bands

0-9

A

B

C

D

E

F

G

H

I

J

K

L

M

N

O

P

Q

R

S

T

U

V

W

X

Y

Z

Search

What

Where
 

Decapitated - "The Negation" Guitar Tab

Plain Text Version
More Decapitated Tabs

Hits: 7023
Rated: 2.00 out of 5 (4 votes)
Updated: 2005-03-16 12:56:07

 

By:

Yura

sendpm.gif

email.gif

Important note
This tab is available online because we obtained explicit permission from Decapitated or their label.


#----------------------------------PLEASE NOTE---------------------------------#
#This file is the author's own work and represents their interpretation of the #
#song. You may only use this file for private study, scholarship, or research. #
#Unless specified otherwise, this is NOT an official tab from the band members.#
#------------------------------------------------------------------------------#

  Visit MetalTabs.com for more metal tablature
  
--- DECAPITATED ---
                               "The Negation"
                     From album: "The Negation"
                     Copyright Earache Records 2004 
                     Transcribed by: Yura Kowalchuk
                     Contact:[yura@grindcore.net]
                             [yura_kowalchuk@mail.ru]
                    http://brutaltabs.musica.mustdie.ru

                            TABULATURE LEGEND:
                   " - tremolo             h - hammer on
                   ~ - vibrato             \ - slide down
                   p - pull off            / - slide down
                  tr - tremolo picking     ^ - pinch harmonics
                   = - sustained note      b - bend string
                p.m. - palm muting         t - tapping

TUNING: C# [C#,F#,B,e,g#,c#]

[Riff 1a]                         3x
||--------------------------------||-----------------------------|
||o------------------------------o||-----------------------------|
||--------------------------------||-----------------------------|
||--8--8------2=========----------||-8--8------2=========--------|
||o-----------2=========---------o||-----------2=========--------|
||--6--6--0-0-0=========-0-0-0-0--||-6--6--0-0-0=========-0000-0-|
 |        . .            . . . .   |       . .            .... . |
||--------------------------------||-----------------------------|
||o------------------------------o||-----------------------------|
||--7--7--------------------------||-7--7------------------------|
||------------2=========----------||-----------2=========--------|
||o-5--5------2=========---------o||-5--5------2=========--------|
||--------0-0-0=========-0-0-0-0--||-------0-0-0=========-0000-0-|
          . .            . . . .           . .            .... .

[Riff 1b]                         3x
||--------------------------------||---------------------------|
||o------------------------------o||---------------------------|
||--------------------------------||---------------------------|
||--8--8------2=========----------||-8--8------2=========------|
||o-----------2=========---------o||-----------2=========-2-2--|
||--6--6--0-0-0=========-0-0-0-0--||-6--6--0-0-0=========-0-0--|
 |        . .            . . . .   |       . .                 |
||--------------------------------||---------------------------|
||o------------------------------o||---------------------------|
||--7--7--------------------------||-7--7----------------------|
||------------2=========----------||-----------2=========------|
||o-5--5------2=========---------o||-5--5------2=========-2-2--|
||--------0-0-0=========-0-0-0-0--||-------0-0-0=========-0-0--|
          . .            . . . .           . .

[Riff 2]
||-------------[x3]-|-----------------|-------------[x3]-|-----------------|-
||------------------|-----------------|------------------|-----------------|-
||------------------|-----------------|------------------|-----------------|-
||------------------|------5-------6--|------------------|------6-------8--|-
||-1-1-1-1-1-1------|-----------------|-1-1-1-1-1-1------|-----------------|-
||-0-0-0-0-0-0-0000-|-0000-3--0000-4--|-0-0-0-0-0-0-0000-|-0000-4--0000-6--|-
   . . . . . . ....   ....    ....      . . . . . . ....   ....    ....

-|-------------[x3]-|-----------------|-------------[x3]-|-----------------||
-|------------------|-----------------|------------------|-----------------||
-|------------------|-----------------|------------------|-----------------||
-|------------------|------8-------9--|------------------|------6----------||
-|-1-1-1-1-1-1------|-----------------|-1-1-1-1-1-1------|-----------------||
-|-0-0-0-0-0-0-0000-|-0000-6--0000-7--|-0-0-0-0-0-0-0000-|-0000-4--0000-3~-||
   . . . . . . ....   ....    ....      . . . . . . ....   ....    ....

[Riff 3]
||---------------------------------|---------------------------------|-
||---------------------------------|---------------------------------|-
||---------------4-3---------------|---------------4-3---------------|-
||-8-5-----------2-1-----------6-5-|-8-5-----------2-1-----------6-5-|-
||-6-3-------4---2-1---------4-----|-6-3-------4---2-1---------7-4-3-|-
||-6-3-1-0-00--3-----0-4-3-00--4-3-|-6-3-1-0-00--3-----0-4-3-00--4-3-|-
           ... .           ...               ... .           ...

-|---------------------------------|---------------------------------||
-|---------------------------------|---------------------------------||
-|---------------4-3---------------|---------------4-3---------------||
-|-8-5-----------2-1-----------6-5-|-8-5-----------2-1---------------||
-|-6-3-------4---2-1---------4-----|-6-3-------4---2-1---------------||
-|-6-3-1-0-00--3-----0-4-3-00--4-3-|-6-3-1-0-00--3-----0-4-3-2~~~~~~-||
           ... .           ...               ... .

[RIFF 2 /under solo/] [RIFF 1a] [RIFF 1b] [RIFF 2] [RIFF 3]

[Riff 4 (x2)]
||----------------------------------------------------[x3]-|-
||---------------------------------------------------------|-
||---------------------------------------------------------|-
||-3-3-----------------------------------------------------|-
||-1-1-----------------2-2---------------------------------|-
||-1-1-0-0-0-0-0-0-0-0-0-0-3-0-0-0-4-0-0-0-3-0-0-0-6-0-0-0-|-
       . . . . . . . .     . . . . . . . . . . . . . . . .

---------------------|----------------||
---------------------|----------------||
---------------------|----------------||
--6--6----------5----|-7-7-----6\5-6--||
--4--4----------5----|-5-5-5-5-4\3-4--||
--4--4--0-0-0-0-3----|-----3-3--------||
        . . . . .

[Outro]
||----------------------------------------------------[x3]-|-..drums fill..
||---------------------------------------------------------|-..............
||---------------------------------------------------------|-..............
||-3-3-----------------------------------------------------|-..............
||-1-1-----------------2-2---------------------------------|-..............
||-1-1-0-0-0-0-0-0-0-0-0-0-3-0-0-0-4-0-0-0-3-0-0-0-6-0-0-0-|-..............
       . . . . . . . .     . . . . . . . . . . . . . . . .

[Riff 5]
||------------------------------------------------------------------|-
||o-----------------------------------------------------------------|-
||------------------------------------------------------------------|-
||----------2h3p2---------------5h6p5-----------2h3p2---------------|-
||o---------------4---------4-7-------7---------------4-------------|-
||--3-0-4-0---------3-0-4-0-------------6-3-0-3---------6-3-0-1-0-3-|-
 |  . . . .       . . . . . . .       . . . . .       . . . . . . . |
||------------------------------------------------------------------|-
||o-----------------------------------------------------------------|-
||------------------------------------------------------------------|-
||----------2h3p2---------------5h6p5-----------2h3p2---------------|-
||o---------------4---------4-7-------7---------------4-------------|-
||--3-0-4-0---------3-0-4-0-------------6-3-0-3---------6-3-0-1-0-3-|-
    . . . .       . . . . . . .       . . . . .       . . . . . . .

-|-----------------------------------------------------------------|-
-|-----------------------------------------------------------------|-
-|-----------------------------------------------------------------|-
-|---------2h3p2---------------5h6p5---------------4h5p4-----------|-
-|---------------4---------4-7-------7---------5-6-------6-3---6-1-|-
-|-3-0-4-0---------3-0-4-0-------------6-3-0-3---------------5-----|-
 | . . . .       . . . . . . .       . . . . . . .       . . . . . |
-|-----------------------------------------------------------------|-
-|-----------------------------------------------------------------|-
-|-----------------------------------------------------------------|-
-|---------2h3p2---------------5h6p5---------------4h5p4-----------|-
-|---------------4---------4-7-------7---------5-6-------6-3---6-1-|-
-|-3-0-4-0---------3-0-4-0-------------6-3-0-3---------------5-----|-
   . . . .       . . . . . . .       . . . . . . .       . . . . .

-|-----------------------------------------------------------------|-
-|-----------------------------------------------------------------|-
-|-----------------------------------------------------------------|-
-|---------2h3p2---------------5h6p5-----------2h3p2---------------|-
-|---------------4---------4-7-------7---------------4-------------|-
-|-3-0-4-0---------3-0-4-0-------------6-3-0-3---------6-3-0-1-0-3-|-
 | . . . .       . . . . . . .       . . . . .       . . . . . . . |
-|-----------------------------------------------------------------|-
-|-----------------------------------------------------------------|-
-|-----------------------------------------------------------------|-
-|---------2h3p2---------------5h6p5-----------2h3p2---------------|-
-|---------------4---------4-7-------7---------------4-------------|-
-|-3-0-4-0---------3-0-4-0-------------6-3-0-3---------6-3-0-1-0-3-|-
    . . . .       . . . . . . .       . . . . .       . . . . . . .
                                 _________________________________________
                                |1.
-|------------------------------------------------------------------------||
-|-----------------------------------------------------------------------o||
-|------------------------------------------------------------------------||
-|---------2h3p2----------------5h6p5-----------------6h=7p6--------------||
-|---------------4---------4-7--------7----------4--7---------8-6----9---o||
-|-3-0-4-0---------3-0-4-0---------------6-3-0-3------------------8----6--||
 | . . . .       . . . . . . .        .  . . . . .  .         . . .  . .   |
-|------------------------------------------------------------------------||
-|-----------------------------------------------------------------------o||
-|------------------------------------------------------------------------||
-|---------5h6p5----------------8h9p8-----------------9h10p9--------------||
-|---------------7---------7-10-------10---------7-10--------11-9---12---o||
-|-3-0-4-0---------6-0-7-0---------------9-6-0-6------------------8----9--||
   . . . .       . . . . . . .        .  . . . . . .         .  . . .  .
  ____________________
 |2.
|---------------------||
|---------------------||
|---------------------||
|-5h6p5-------8-------||
|-------7-----6-------||
|---------6-3-6-------||
|       . . . .        |
|---------------------||
|---------------------||
|---------------------||
|-8h9p8-------8-------||
|------10-----6-------||
|---------9-6-6-------||
       .  . . .

[RIFF 2] [RIFF 3] [RIFF 1 (x3)] ~~~.....fade out

END OF SONG

  Visit MetalTabs.com for more metal tablature

bottom separator

Contact Us | Privacy Policy | Disclaimer | Legal Notice
Copyright © 2001-2014 MetalTabs.com. All Rights Reserved.