top separator

Home

Forum

What's New

Submit a Tab

FAQ

Links

Contact Us

Link to Us

MetalTabs.com logo

Bands

0-9

A

B

C

D

E

F

G

H

I

J

K

L

M

N

O

P

Q

R

S

T

U

V

W

X

Y

Z

Search

What

Where
 

Mindsnare (AU) - "You Die Alone" Guitar Tab

Plain Text Version
More Mindsnare (AU) Tabs

Hits: 1840
Updated: 2005-03-16 12:54:52

 

By:

Meesh

sendpm.gif

email.gif

Important note
This tab is available online because we obtained explicit permission from Mindsnare (AU) or their label.


#----------------------------------PLEASE NOTE---------------------------------#
#This file is the author's own work and represents their interpretation of the #
#song. You may only use this file for private study, scholarship, or research. #
#Unless specified otherwise, this is NOT an official tab from the band members.#
#------------------------------------------------------------------------------#

  Visit MetalTabs.com for more metal tablature
  
Band:  Mindsnare
Album: The Death
Song:  You Die Alone

Copyright (c) Trial and Error 2004
Version 1.0 - 2004

Transcribed By: Mischa Antohe
Email:          Demon_meesh@hotmail.com

Rythym ain't perfect so listen to the song.

-  = palm mute           /  = slide up to
\  = slide down to       b  = Bend
h  = hammer on
p  = pull off

Tunning Eb Ab Db Gb Bb Eb


Riff A - 0.00
|-------------------------------------------------------------------|
|-------------------------------------------------------------------|
|-------------------------------------------------------------------|
|-4-444-5-5-52--4-444-5-5-5-10\9--10\9--10\9------------------------|x2
|-2-222-3-3-32--2-222-3-3-3-8-\7--8-\7--8-\7------------------------|
|------------0------------------------------------------------------|
    ---           ---

Fill A - 0.08
|-------------------------------------------------------------------|
|-------------------------------------------------------------------|
|-------------------------------------------------------------------|
|-4-444-5-5-5-------------------------------------------------------|x1
|-2-222-3-3-3-------------------------------------------------------|
|-------------------------------------------------------------------|
    ---


Riff B - 0.09
|-------------------------------------------------------------------|
|-------------------------------------------------------------------|
|-------------------------------------------------------------------|
|----------10\9--10\9--10\9-----------10\9--12\7--7/10----------10\9|
|-22222222-8-\7--8-\7--8-\7--22222222-8-\7--10\5--5/8--22222222-8-\7|
|-00000000-------------------00000000------------------00000000-----|
  --------                   --------                  --------
|-------------------------------------------------------------------|
|-------------------------------------------------------------------|
|-------------------------------------------------------------------|
|-10\9--10\9--3/5-5-5-5-2-3-3-3-3-----------------------------------|x2
|-8-\7--8-\7--3/5-5-5-5-2-3-3-3-3-----------------------------------|
|-------------1/3-3-3-3-0-1-1-1-1-----------------------------------|



Riff C - 0.26
|-------------------------------------------------------------------|
|-------------------------------------------------------------------|
|------------4------------4------------4-----------------------4----|
|----------23-----------23-----------23--3h4-0-3-------------23-----|
|-22222222-----22222222-----22222222------------32--22222222--------|
|-00000000-----00000000-----00000000----------------00000000--------|
  --------     --------     --------         -      --------
|-------------------------------------------------------------------|
|-------------------------------------------------------------------|
|------------4------------4-----------------------------------------|
|----------23-----------23--3h4-0-3---------------------------------|x1
|-22222222-----22222222------------32-------------------------------|
|-00000000-----00000000--------------0------------------------------|
  --------     --------         -


Fill B - 0.38
|------------------------------7/8/19-------------------------------|
|------------------------5h68/9-------------------------------------|
|---------------------4h5-------------------------------------------|
|-4-444-5-5-52-----2h3----------------------------------------------|x1
|-2-222-3-3-32--2h3-------------------------------------------------|
|------------0------------------------------------------------------|
    ---


0.44 - repeat Riff B x2

1.00 - repeat Riff C x1

1.12 - repeat Riff A x2



Fill C - 1.21
|-------------------------------------------------------------------|
|-------------------------------------------------------------------|
|-------------------------------------------------------------------|
|-4-444-5-5-59\-----------------------------------------------------|x1
|-2-222-3-3-37\-----------------------------------------------------|
|-------------------------------------------------------------------|
    ---


Riff D - 1.22
|-------------------------------|-----------------------------------|
|-------------------------------|-----------------------------------|
|-------------------------------|-----------------------------------|
|---------------------7-12-10-9-|x2---------------------7-12-10-----|
|-2-2-2-2-2-2-2-2-2-2-5-10-8--7-|---2-2-2-2-2-2-2-2-2-2-5-10-8------|
|-0-0-0-0-0-0-0-0-0-0-----------|---0-0-0-0-0-0-0-0-0-0-------------|
  - - - - - - - - - -               - - - - - - - - - -
|--------------------------------|----------------------------------|
|--------------------------------|----------------------------------|
|--------------------------------|----------------------------------|
|-5-55------7-77------7-10-10-10-|x1--------------------------------|x3
|-3-33-5-55-5-55-7-77-5-8--8--8--|----------------------------------|
|------3-33------5-55------------|----------------------------------|
    --   --   --   --

1.59 repeat Riff C x4


End.

  Visit MetalTabs.com for more metal tablature

bottom separator

Contact Us | Privacy Policy | Disclaimer | Legal Notice
Copyright © 2001-2014 MetalTabs.com. All Rights Reserved.