top separator

Home

Forum

What's New

Submit a Tab

FAQ

Links

Contact Us

Link to Us

MuSpy.com

MetalTabs.com logo

Bands

0-9

A

B

C

D

E

F

G

H

I

J

K

L

M

N

O

P

Q

R

S

T

U

V

W

X

Y

Z

Search

What

Where
 

Psycroptic - "Netherworld Reality" Guitar Tab

Plain Text Version
More Psycroptic Tabs

Hits: 3227
Rated: 5.00 out of 5 (1 vote)
Updated: 2005-03-16 12:54:33

 

By:

Cloaca

sendpm.gif

email.gif

Important note
This tab is available online because we obtained explicit permission from Psycroptic or their label.


#----------------------------------PLEASE NOTE---------------------------------#
#This file is the author's own work and represents their interpretation of the #
#song. You may only use this file for private study, scholarship, or research. #
#Unless specified otherwise, this is NOT an official tab from the band members.#
#------------------------------------------------------------------------------#

  Visit MetalTabs.com for more metal tablature
  
Psycroptic - 'Netherworld Reality'
The Isle Of Disenchantment (2001)
Self Released

Tabbed by Tim Snowsill (Tim_Snowsill@hotmail.com)
05/03/05
________________________________________________________________________________
Tab Rhythm is hardly perfect so listen to CD. Any comments or corrections can be
e-mailed to above address.

________________________________________________________________________________
Dropped C# Tuning (C# G# C# F# A# D#)


 3/4
  Gtr I
  S S S S S S S S S S S S   E E E E E E
|-------------------------|-------------|
|-------------------------|-------------|
|-------------------------|-------------|
|-------------------------|-------------|
|-3-3-3-3-3-3---------3-3-|-6-4-3-4-3---|
|-------------5-5-5-5-----|-----------5-|
|
| Gtr II
| W                         W
|-------------------------|-------------|
|-------------------------|-------------|
|-------------------------|-------------|
|-------------------------|-------------|
|-------------------------|-------------|
|-------------------------|-------------|


  S S S S S S S S S S S S   E  E E Q.
|-------------------------|--------------|
|-------------------------|--------------|
|-------------------------|--------------|
|-------------------------|--------6-----|
|-3-3-3-3-3-3---------3-3-|-6--4-3-4-----|
|-------------5-5-5-5-----|--------------|
|
| W                         Q.     Q.
|-------------------------|--------------|
|-------------------------|--------------|
|-------------------------|--------------|
|-------------------------|--------6-----|
|-------------------------|--------4-----|
|-------------------------|--------------|


    Gtrs I, II
    S S S S S S S S S S S S   S S S S S S S S S S E
||--------------------------|-----------------------|
||o-------------------------|-----------------------|
||--------------------------|-----------------------|
||--------------------------|-----------------------|
||o-3-3-3-3-3-3---------3-3-|-6-6-4-4-3-3-4-4-3-3---|
||--------------5-5-5-5-----|---------------------5-|


  S S S S S S S S S S S S   S S S S E Q.    3x
|-------------------------|-----------------||
|-------------------------|----------------o||
|-------------------------|-----------------||
|-------------------------|-----------6-----||
|-3-3-3-3-3-3---------3-3-|-6-6-4-4-3-4----o||
|-------------5-5-5-5-----|-----------------||


    S S S S S S S S S S S S   S S S S S S S S S S E
||--------------------------|-----------------------|
||o-------------------------|-----------------------|
||--------------------------|-----------------------|
||--------------------------|-----------------------|
||o-5-5-5-5-5-5---------5-5-|-8-8-6-6-5-5-6-6-5-5---|
||--------------6-6-6-6-----|---------------------6-|


  S S S S S S S S S S S S   S S S S E Q.
|-------------------------|-----------------||
|-------------------------|----------------o||
|-------------------------|-----------------||
|-------------------------|-----------8-----||
|-5-5-5-5-5-5---------5-5-|-8-8-6-6-5-6----o||
|-------------6-6-6-6-----|-----------------||


    S S S S S S S S S S S S   S S S S S S S S S S E
||--------------------------|-----------------------|
||o-------------------------|-----------------------|
||--------------------------|-----------------------|
||--------------------------|-----------------------|
||o-3-3-3-3-3-3---------3-3-|-6-6-4-4-3-3-4-4-3-3---|
||--------------5-5-5-5-----|---------------------5-|


  S S S S S S S S S S S S   S S S S E Q.
|-------------------------|-----------------||
|-------------------------|----------------o||
|-------------------------|-----------------||
|-------------------------|-----------6-----||
|-3-3-3-3-3-3---------3-3-|-6-6-4-4-3-4----o||
|-------------5-5-5-5-----|-----------------||


    Q.   S S S S S S   S S S S S S S S S S S S
||-------------------|-------------------------|
||o------------------|-------------------------|
||-------------------|-------------------------|
||--5----5-5-5-5-5-5-|-8-8-7-7-5-5-7-7-7-7-7-7-|
||o-3----------------|-------------------------|
||-------------------|-------------------------|


  S S S S S S S S S S S S   S S S S S S S S S S S S
|-------------------------|----------------------------||
|-------------------------|---------------------------o||
|-------------------------|----------------------------||
|-5-5-7-7-8-8-5-5-5-5-5-5-|-8-8-7-7-5-5----------------||
|-------------------------|-------------8-8-6-6-5-5---o||
|-------------------------|----------------------------||


    Q.   E S S S S   E S S S S E S S S S
||-----------------|---------------------|
||o----------------|---------------------|
||-----------------|---------------------|
||--5----5-5-5-5-5-|-8-7-7-5-5-7-7-7-7-7-|
||o-3--------------|---------------------|
||-----------------|---------------------|


  E S S S S E S S S S   E S S S S E S S S S
|---------------------|------------------------||
|---------------------|-----------------------o||
|---------------------|------------------------||
|-5-7-7-8-8-5-5-5-5-5-|-8-7-7-5-5--------------||
|---------------------|-----------8-6-6-5-5---o||
|---------------------|------------------------||


    Q.   E S S E   E S S E E S S E   Q.   E S S E   E S S E E E E
||---------------|-----------------|--------------|---------------|
||o--------------|-----------------|--------------|---------------|
||---------------|-----------------|--------------|---------------|
||--5----5-------|-8-------7-------|------5-------|-3-----------3-|
||o-3----3-3-3-3-|-6-3-3-3-5-3-3-3-|-1------1-1-1-|---1-3-5-1-5---|
||---------------|-----------------|--------------|---------------|


  Q.   E S S E   E S S E E S S E   Q.   Q E    E E E E E E
|--------------|-----------------|-----------|---------------||
|--------------|-----------------|-----------|--------------o||
|--------------|-----------------|-----------|---------------||
|------5-------|-6---------------|------3h5--|-----5-----6\--||
|-6----6-6-6-6-|---6-6-6-8-6-6-6-|-5---------|-1-5---3-6----o||
|--------------|-----------------|-----------|---------------||


    Q.   Q.     Q.   Q.     E E E E E E   E E E E E E  3x
||------------|-----------|-------------|--------------||
||o-----------|-----------|-------------|-------------o||
||------------|-----------|-------------|--------------||
||--5---------|-----------|-------------|-3-6-5-3------||
||o-3----5----|-6----3----|-------3-5-6-|---------6-5-o||
||-------5----|-6----3----|-3-5-6-------|--------------||


  Q.   Q.     Q.   Q.     E E E E E E   E E E E Q
|-----------|-----------|-------------|-------------|
|-----------|-----------|-------------|-------------|
|-----------|-----------|-------------|-------------|
|-5---------|-----------|-------------|-3-6-5-3-----|
|-3----5----|-6----3----|-------3-5-6-|-------------|
|------5----|-6----3----|-3-5-6-------|-------------|


    S S S S S S S S S S S S   S S S S S S S S S S E
||--------------------------|-----------------------|
||o-------------------------|-----------------------|
||--------------------------|-----------------------|
||--------------------------|-----------------------|
||o-3-3-3-3-3-3---------3-3-|-6-6-4-4-3-3-4-4-3-3---|
||--------------5-5-5-5-----|---------------------5-|


  S S S S S S S S S S S S   S S S S E Q.    4x
|-------------------------|-----------------||
|-------------------------|----------------o||
|-------------------------|-----------------||
|-------------------------|-----------6-----||
|-3-3-3-3-3-3---------3-3-|-6-6-4-4-3-4----o||
|-------------5-5-5-5-----|-----------------||


    S S S S S S S S S S S S   S S S S S S S S S S E
||--------------------------|-----------------------|
||o-------------------------|-----------------------|
||--------------------------|-----------------------|
||--------------------------|-----------------------|
||o-5-5-5-5-5-5---------5-5-|-8-8-6-6-5-5-6-6-5-5---|
||--------------6-6-6-6-----|---------------------6-|


  S S S S S S S S S S S S   S S S S E Q.
|-------------------------|-----------------||
|-------------------------|----------------o||
|-------------------------|-----------------||
|-------------------------|-----------8-----||
|-5-5-5-5-5-5---------5-5-|-8-8-6-6-5-6----o||
|-------------6-6-6-6-----|-----------------||


    S S S S S S S S S S S S   S S S S S S S S S S E
||--------------------------|-----------------------|
||o-------------------------|-----------------------|
||--------------------------|-----------------------|
||--------------------------|-----------------------|
||o-3-3-3-3-3-3---------3-3-|-6-6-4-4-3-3-4-4-3-3---|
||--------------5-5-5-5-----|---------------------5-|


  S S S S S S S S S S S S   S S S S E Q.
|-------------------------|-----------------||
|-------------------------|----------------o||
|-------------------------|-----------------||
|-------------------------|-----------6-----||
|-3-3-3-3-3-3---------3-3-|-6-6-4-4-3-4----o||
|-------------5-5-5-5-----|-----------------||


    S S S S S S S S S S S S   S S S S S S S S S S E
||--------------------------|-----------------------|
||o-------------------------|-----------------------|
||--------------------------|-----------------------|
||--------------------------|-----------------------|
||o-5-5-5-5-5-5---------5-5-|-8-8-6-6-5-5-6-6-5-5---|
||--------------6-6-6-6-----|---------------------6-|


  S S S S S S S S S S S S   S S S S E Q.
|-------------------------|-----------------||
|-------------------------|----------------o||
|-------------------------|-----------------||
|-------------------------|-----------8-----||
|-5-5-5-5-5-5---------5-5-|-8-8-6-6-5-6----o||
|-------------6-6-6-6-----|-----------------||


  Q=220
 4/4
  Gtr I
  Q  S  S S S S S S S S S S S   S  S S S S S S S S S S S E E
|-----------------------------|------------------------------|
|-----------------------------|------------------------------|
|-----------------------------|------------------------------|
|-7--7--7-7-7-5-5-5-5-4-4-4-4-|-5--5-5-5-4-4-4-4---------5-5-|
|-5---------------------------|------------------6-6-6-6-3-3-|
|-----------------------------|------------------------------|
|
| Gtr II
| Q  H.                         H.                       E E
|-----------------------------|------------------------------|
|-----------------------------|------------------------------|
|-----------------------------|------------------------------|
|-7---------------------------|--------------------------5-5-|
|-5---------------------------|--------------------------3-3-|
|-----------------------------|------------------------------|


                                |-3-|    |-3-|
  Q  S  S S S S S S S S S S S   E E E Q  E E E Q
|-----------------------------|-------------------|
|-----------------------------|-------------------|
|-----------------------------|-------------------|
|-7--7--7-7-7-5-5-5-5-4-4-4-4-|-4h5p4----4h5p4----|
|-5---------------------------|-------6--------3--|
|-----------------------------|-------------------|
|
|                               |-3-|    |-3-|
| Q  H.                         E E E Q  E E E Q
|-----------------------------|-------------------|
|-----------------------------|-------------------|
|-----------------------------|-------------------|
|-7---------------------------|-4h5p4----4h5p4----|
|-5---------------------------|-------6--------3--|
|-----------------------------|-------------------|


    Gtrs I, II
    Q  S S S S S S S S S S S S   S S S S S S S S S S S S Q
||-----------------------------|----------------------------|
||o----------------------------|----------------------------|
||-----------------------------|----------------------------|
||--7--7-7-7-7-5-5-5-5-4-4-4-4-|-5-5-5-5-4-4-4-4---------5--|
||o-5--------------------------|-----------------6-6-6-6-3--|
||-----------------------------|----------------------------|


                               |-3-|    |-3-|
  Q  S S S S S S S S S S S S   E E E Q  E E E Q
|----------------------------|--------------------||
|----------------------------|-------------------o||
|----------------------------|--------------------||
|-7--7-7-7-7-5-5-5-5-4-4-4-4-|-4h5p4----4h5p4-----||
|-5--------------------------|-------6--------3--o||
|----------------------------|--------------------||


    Q=200
    E E E E E E E E   E E E E E E E E   E E E E E E E E   E E E E E E Q
||------------------|-----------------|-----------------|----------------------|
||o-----------------|-----------------|-----------------|----------------------|
||------------------|-----------------|-----------------|---------6-6----------|
||------------------|-----------------|-----------------|-8-8-7-7-----7b7.5r===|
||o-----5-5-8-8-7-7-|-4-4-0-0-1-1-0-0-|-----5-5-8-8-7-7-|----------------------|
||--0-0-------------|-----------------|-0-0-------------|----------------------|


                                                         ~~~~~~~~~~~
  E E E E E E E E   E E E E E E E E   E E E E E E E E    Q  Q  Q  Q
|-----------------|-----------------|-----------------|--------------|
|-----------------|-----------------|-----------------|--------------|
|-----------------|-----------------|-----------------|-10--9--7-----|
|-----------------|-----------------|-----------------|--8--7--5--8--|
|-----5-5-8-8-7-7-|-4-4-0-0-1-1-0-0-|-----5-5-8-8-7-7-|-----------6--|
|-0-0-------------|-----------------|-0-0-------------|--------------|


 3/4
  Q.   E S S E   E S S E E S S S S   E S S E E S S S S   E S S S S E E E
|--------------|-------------------|-------------------|-----------------|
|--------------|-------------------|-------------------|-----------------|
|--------------|-------------------|-------------------|-----------------|
|--------------|-------------------|-------------------|-----------------|
|-5----5-------|-6-5-5-3-5-5-5-5-5-|-6-5-5-3-5-3-3-3-3-|-3-2-2-2-2-5-3-2-|
|-5------5-5-5-|-------------------|-------------------|-----------------|


  Q.   E S S E   E S S E E S S S S   Q.   Q.     Q.   Q.
|--------------|-------------------|-----------|------------|
|--------------|-------------------|-----------|------------|
|--------------|-------------------|-----------|------------|
|--------------|-------------------|-----------|------------|
|-5----5-------|-6-5-5-3-5-5-5-5-5-|-6----3----|-5----1-----|
|-5------5-5-5-|-------------------|-6----3----|-5----1-----|


  Q.   E S S E   E S S E E S S S S   E S S E E S S S S   E S S S S E E E
|--------------|-------------------|-------------------|------------------|
|--------------|-------------------|-------------------|------------------|
|--------------|-------------------|-------------------|------------------|
|--------------|-------------------|-------------------|------------------|
|-5----5-------|-6-5-5-3-5-5-5-5-5-|-6-5-5-3-5-3-3-3-3-|-3-2-2-2-2-5-3-2--|
|-5------5-5-5-|-------------------|-------------------|------------------|


  Q.   E S S E   E S S E E S S S S   Q.   Q.     Q.   Q.
|--------------|-------------------|-----------|-------------||
|--------------|-------------------|-----------|------------o||
|--------------|-------------------|-----------|-------------||
|--------------|-------------------|-----------|------4------||
|-5----5-------|-6-5-5-3-5-5-5-5-5-|-6----3----|-5----2-----o||
|-5------5-5-5-|-------------------|-6----3----|-5-----------||


  Gtr I
                                                    |-3--|
  E E E E E E   E E  E   Q  E   E E E E E E   E E E E  E E E
|-------------|---------------|-------------|----------------|
|-------------|---------------|-------------|----------------|
|-------7p6h7-|-----(7)S10--6-|-------7p6h7-|-------7-10-7-6-|
|-----8-------|-0-0-----------|-----8-------|-0-0-0----------|
|-------------|---------------|-------------|----------------|
|-8-8---------|---------------|-8-8---------|----------------|
|
| Gtr II
|                                                   |-3--|
| W             W               E E E E E E   E E E E  E E E
|-------------|---------------|-------------|----------------|
|-------------|---------------|-------------|----------------|
|-------------|---------------|-------7p6h7-|-------7-10-7-6-|
|-------------|---------------|-----8-------|-0-0-0----------|
|-------------|---------------|-------------|----------------|
|-------------|---------------|-8-8---------|----------------|


  Gtrs I, II
  E E E E E E   E E  E   Q  E   E E E E Q     E E E E Q    E E E E Q
|-------------|---------------|-------------|------------|-------------|
|-------------|---------------|-------------|------------|-------------|
|-------7p6h7-|-----(7)S10--6-|-------7p6\--|------------|-------------|
|-----8-------|-0-0-----------|-----8-------|-7-6-3-2----|-------------|
|-------------|---------------|-------------|-5-4-1-0----|-8-7-5-7-----|
|-8-8---------|---------------|-8-8---------|------------|-8-7-5-7-----|


  S S S S S S S S S S S S   S S S S S S S S S S S S
|-------------------------|-------------------------|
|-------------------------|-------------------------|
|-------------------------|-------------------------|
|-------------------------|-------------------------|
|-------------------------|-------------------------|
|-8-8-7-7-5-5-3-3-3-3-3-3-|-5-5-3-3-2-2-3-3-3-3-3-3-|


  S S S S S S S S S S S S   S S S S S S S S S S S S
|-------------------------|-------------------------|
|-------------------------|-------------------------|
|-------------------------|-------------------------|
|-------------------------|-------------------------|
|-5-5-4-4-1-1-0-0-0-0-0-0-|-------------------------|
|-------------------------|-8-8-7-7-5-5-7-7-7-7-7-7-|


  S S S S S S S S S S S S   S S S S S S S S S S S S
|-------------------------|-------------------------|
|-------------------------|-------------------------|
|-------------------------|-------------------------|
|-------------------------|-------------------------|
|-------------------------|-------------------------|
|-8-8-7-7-5-5-3-3-3-3-3-3-|-5-5-3-3-2-2-3-3-3-3-3-3-|


    E E E Q.     E E E Q.     E E E Q.     E E E Q.
||-------------|------------|------------|-------------||
||o------------|------------|------------|------------o||
||-------------|------------|------------|-------------||
||--7-6-3-2----|------------|------------|-------------||
||o-5-4-1-0----|-8-7-5-7----|-8-7-5-3----|-5-3-2-3----o||
||-------------|-8-7-5-7----|-8-7-5-3----|-5-3-2-3-----||


    S S S S S S S S S S S S   S S S S S S S S S S E
||--------------------------|-----------------------|
||o-------------------------|-----------------------|
||--------------------------|-----------------------|
||--------------------------|-----------------------|
||o-5-5-5-5-5-5---------5-5-|-8-8-6-6-5-5-6-6-5-5---|
||--------------6-6-6-6-----|---------------------6-|


  S S S S S S S S S S S S   S S S S E Q.
|-------------------------|-----------------||
|-------------------------|----------------o||
|-------------------------|-----------------||
|-------------------------|-----------8-----||
|-5-5-5-5-5-5---------5-5-|-8-8-6-6-5-6----o||
|-------------6-6-6-6-----|-----------------||


  S S S S S S S S S S S S   S S S S S S S S S S E
|-------------------------|-----------------------|
|-------------------------|-----------------------|
|-------------------------|-----------------------|
|-------------------------|-----------------------|
|-3-3-3-3-3-3---------3-3-|-6-6-4-4-3-3-4-4-3-3---|
|-------------5-5-5-5-----|---------------------5-|


  S S S S S S S S S S S S   S S S S E Q.
|-------------------------|-----------------|
|-------------------------|-----------------|
|-------------------------|-----------------|
|-------------------------|-----------6-----|
|-3-3-3-3-3-3---------3-3-|-6-6-4-4-3-4-----|
|-------------5-5-5-5-----|-----------------|


  S S S S S S S S S S S S   S S S S S S S S S S E
|-------------------------|-----------------------|
|-------------------------|-----------------------|
|-------------------------|-----------------------|
|-------------------------|-----------------------|
|-3-3-3-3-3-3---------3-3-|-6-6-4-4-3-3-4-4-3-3---|
|-------------5-5-5-5-----|---------------------5-|


  S S S S S S S S S S S S   S S S S E E Q
|-------------------------|-----------------*|
|-------------------------|-----------------*|
|-------------------------|-----------------*|
|-------------------------|-----------6-----*|
|-3-3-3-3-3-3---------3-3-|-6-6-4-4-3-4-----*|
|-------------5-5-5-5-----|-----------------*|

End.

  Visit MetalTabs.com for more metal tablature

bottom separator

Contact Us | Privacy Policy | Disclaimer | Legal Notice
Copyright © 2001-2014 MetalTabs.com. All Rights Reserved.