top separator

Home

Forum

What's New

Submit a Tab

FAQ

Links

Contact Us

Link to Us

MuSpy.com

MetalTabs.com logo

Bands

0-9

A

B

C

D

E

F

G

H

I

J

K

L

M

N

O

P

Q

R

S

T

U

V

W

X

Y

Z

Search

What

Where
 

Avulsed - "Decrepit Sigh" Guitar Tab

Plain Text Version
More Avulsed Tabs

Hits: 2877
Rated: 4.00 out of 5 (1 vote)
Updated: 2005-03-16 12:27:16

 

By:

Robbie Filth

sendpm.gif

email.gif

Important note
This tab is available online because we obtained explicit permission from Avulsed or their label.


#----------------------------------PLEASE NOTE---------------------------------#
#This file is the author's own work and represents their interpretation of the #
#song. You may only use this file for private study, scholarship, or research. #
#Unless specified otherwise, this is NOT an official tab from the band members.#
#------------------------------------------------------------------------------#

  Visit MetalTabs.com for more metal tablature
  
Band: Avulsed
Album: Yearning for the Grotesque
Song: Decrepit Sigh
Record Label: Avantgarde Music
Tuning: C G C F A D

1 gtr keeps repeating this
----------------
----------------
----------------
----------------
-10-10-8-8-10---
-10-10-8-8-10---X5
           bend listen to get the bend right

--------------
--------------
--------------
--------------
-10-10-8-8----
-10-10-8-8----X4

----------------------
----------------------
----------------------
----------------------
-10-10-8---6-6-5------
-10-10-8-5-6-6-5-1----X4
         vib     vib

--------------
--------------
--------------
--------------
-10-10-8-8----
-10-10-8-8----X4

-10-10-8-8----
-10-10-8-8----X4

----------------------
----------------------
----------------------
----------------------
-10-10-8---6-6-5------
-10-10-8-5-6-6-5-1----X4
         vib     vib

-------------------------------------------
-------------------------------------------
-------------------------------------------
----------------------------------------9--
-10101010101010101010101010101010101010-ph-and bend
-10101010101010101010101010101010101010----X4
 WELL mayb it doesnt play the ten that many times

--------------------
--------------------
--------------------
--------------------
-8-8-8-8-8-8-7-4----
-8-8-8-8-8-8-7-4----X4

-------------------------------------------
-------------------------------------------
-------------------------------------------
----------------------------------------9--
-10101010101010101010101010101010101010-ph-and bend
-10101010101010101010101010101010101010----X4
 pm....................................
 WELL mayb it doesnt play the ten that many times

--------------------------
--------------------------
--------------------------
--------------------------
-88-88-88-88-88-88-7-4----
-88-88-88-88-88-88-7-4----X4
 pm...............

------------------------------------
------------------------------------
------------------------------------
-5-5-5-5-8-8-8-8--------------------
-3-3-3-3-6-6-6-6-6-6-6-6-3-3-1-0----
-----------------6-6-6-6-3-3-1-0----X8 But has Variations without pms
 pm.............................

---------------
---------------
---------------
-5--------3----
-3--5--6--1----
----5--6-------X4
 let ring....

--------------
--------------
--------------
--------------
-10-10-8-8----
-10-10-8-8----X4

----------------------
----------------------
----------------------
----------------------
-10-10-8---6-6-5------
-10-10-8-5-6-6-5-1----X4
         vib     vib

-------------------------------------------
-------------------------------------------
-------------------------------------------
----------------------------------------9--
-10101010101010101010101010101010101010-ph-and bend
-10101010101010101010101010101010101010----X4
 WELL mayb it doesnt play the ten that many times

--------------------
--------------------
--------------------
--------------------
-8-8-8-8-8-8-7-4----
-8-8-8-8-8-8-7-4----X4

-------------------------------------------
-------------------------------------------
-------------------------------------------
----------------------------------------9--
-10101010101010101010101010101010101010-ph-and bend
-10101010101010101010101010101010101010----X4
 pm....................................
 WELL mayb it doesnt play the ten that many times

--------------------------
--------------------------
--------------------------
--------------------------
-88-88-88-88-88-88-7-4----
-88-88-88-88-88-88-7-4----X4
 pm...............

------------------------------------
------------------------------------
------------------------------------
-5-5-5-5-8-8-8-8--------------------
-3-3-3-3-6-6-6-6-6-6-6-6-3-3-1-0----
-----------------6-6-6-6-3-3-1-0----X8 But has Variations without pms
 pm.............................

---------------
---------------
---------------
-5--------3----
-3--5--6--1----
----5--6-------until faded out
 let ring....

this is the rythm guitar so if anyone has the solo or lead lines
or corrections mail them to me please at:
septic_flesh241@hotmail.com

  Visit MetalTabs.com for more metal tablature

bottom separator

Contact Us | Privacy Policy | Disclaimer | Legal Notice
Copyright © 2001-2014 MetalTabs.com. All Rights Reserved.