top separator

Home

Forum

FAQ

Contact Us

Link to Us

MetalTabs.com logo

Bands

0-9

A

B

C

D

E

F

G

H

I

J

K

L

M

N

O

P

Q

R

S

T

U

V

W

X

Y

Z

Black Sabbath - "Snowblind" Guitar Tab

Plain Text Version
More Black Sabbath Tabs

Hits: 6588
Rated: 3.50 out of 5 (6 votes)
Updated: 2005-03-16 12:26:01

By:


#----------------------------------PLEASE NOTE---------------------------------#
#This file is the author's own work and represents their interpretation of the #
#song. You may only use this file for private study, scholarship, or research. #
#Unless specified otherwise, this is NOT an official tab from the band members.#
#------------------------------------------------------------------------------#

  Visit MetalTabs.com for more metal tablature
  
Band: Black Sabbath
Album: Vol.4
Song Title: Snowblind
Copyright  Warner Bros. 1972

Transcribed by: Sock Monkey 02/17/05
email: cory@eastlakechurch.com

.  - palm mute
\  - slide down to
/  - slide up to
h  - hammer on
p  - pull off
~  - vibrato
b  - bend
() - ghost note, sustained note

Intro: (x2)
e------------------------------------------------------------|
b----------------------------------2----------------4--------|
g---6/--8/--9\--4/--6----------2-----2----------4-----4------|
D---6/--8/--9\--4/--6--------2---2-----2------4---4-----4----|
A---4/--6/--7\--2/--4--2---0-------------0--2-------------2--|
E------------------------0-----------------------------------|

Riff A:
e-------------------------------|
b-------------------------------|
g------.------------------------|
D---6--6--4/6------4--4------2--|
A---4--4--2/4--(0)-2--2--2-4----|
E-------------------------------|

Riff B:
e----------------------------------------------------------------|
b-------------------------2-------4-----------------------2---4--|
g-----------------------2-------4-----------------------2---4----|
D---6--4--3--4--------2-------4-----6--4--3--4--------2---4------|
A---4--2--1--4--4---0-------2-------4--2--1--4--4---0---2--------|
E------------2--2(0)-------------------------2--2(0)-------------|

Bridge:
e-------------------------------------------------------------------|
b------------------------------------------2------------------------|
g--------6---6-----6--4---4----3-------2-----2-------------6--------|
D------6---6---6------4-----4--3-----2---2-----2-------6-----6------|
A----4-----------4----2--------1---0-------------0---6---6-----6----|
E--------------------------------------------------4-------------4--|

Solo:
e--------------------------------------------------
b------9/12-/14-14-14-14--14-12--------------------
g-------------------------------13-12-11-9---------
D--------------------------------------------------
A-----------------------------------------b9~-7~---
E--------------------------------------------------






------------------------------------------------------
------------------------------------------------------
------------------------------------------------------
------------------------------------------------------
--------7-9-9b11-9b11-9/11\9-7-9---------7------7-----
----7-9--------------------------9---7-9---9~-9---9~--

----------------------------------------------------------------------
----------------------------------------------------------------------
----------------------------------------------------------------------
----------------------------------------------------------------------
--------7-9-9/11~--/11\9-7-9-/11\9-7-9--------7------7--------7-9/11--
----7-9--------------------------------9--7-9---9~-9---9--7-9---------

----------------------------------------------/14-14p12---
----------/14~-14~-14~-14~--14-12----------------------14-
----------------------------------13-12-11-9--------------
----------------------------------------------------------
--11\9-7--------------------------------------------------
----------------------------------------------------------

------------------------|
---14-12----------------|
---------13-12-11-9-----|
-------------------11\--|
------------------------|
------------------------|

Riff C:
e-------------------------------------------------|
b-------------------------------------------------|
g-------------------------------------------------|
D------------------------------------------9-9----|
A------------------------------------------9-9----|
E---9-9-12(p9)12-9-9-12(p9)12-9-9-12p(9)12-7-7----|


Intro (x2)

Riff A (x6)

Riff B (x1)

Riff A (x6)

Riff B (x1)

Intro (x2)

Bridge (x5)

Solo (with Bridge)

Riff A (x6)

Riff B (x1)

Riff C (x8)

Riff B (faster tempo x1)

Riff A (w/ outro solo until fade out)

  Visit MetalTabs.com for more metal tablature

bottom separator

Contact Us | Privacy Policy | Disclaimer
Copyright © 2001-2014 MetalTabs.com. All Rights Reserved.