top separator

Home

Forum

What's New

Submit a Tab

FAQ

Links

Contact Us

Link to Us

MuSpy.com

MetalTabs.com logo

Bands

0-9

A

B

C

D

E

F

G

H

I

J

K

L

M

N

O

P

Q

R

S

T

U

V

W

X

Y

Z

Search

What

Where
 

Mindsnare (AU) - "The Web" Guitar Tab

Plain Text Version
More Mindsnare (AU) Tabs

Hits: 1854
Updated: 2005-03-13 12:19:29

 

By:

Meesh

sendpm.gif

email.gif

Important note
This tab is available online because we obtained explicit permission from Mindsnare (AU) or their label.


#----------------------------------PLEASE NOTE---------------------------------#
#This file is the author's own work and represents their interpretation of the #
#song. You may only use this file for private study, scholarship, or research. #
#Unless specified otherwise, this is NOT an official tab from the band members.#
#------------------------------------------------------------------------------#

  Visit MetalTabs.com for more metal tablature
  
Band:  Mindsnare
Album: The Death
Song:  The Web

Copyright (c) Trial and Error 2004
Version 1.0 - 2004

Transcribed By: Mischa Antohe
Email:          Demon_Meesh@hotmail.com

Rythym ain't perfect so listen to the song.

-  = palm mute           /  = slide up to
\  = slide down to       b  = Bend
h  = hammer on           br = bend release
p  = pull off


Tunning Eb Ab Db Gb Bb Eb

Intro - 0.00
|----------------------|
|----------------------|
|-2--------------------|
|-2--Fade-in-with-this-|x1
|-0--------------------|
|----------------------|

Riff A - 0.10
|-------------------------------------------------------------------|
|-------------------------------------------------------------------|
|-------------------------------------------------------------------|
|-7-7777-7-5-7-88-888-8-7-7777-7-5-7-88-8-55-5----------------------|x4
|-5-5555-5-3-5-66-666-6-5-5555-5-3-5-66-6-33-3----------------------|
|-------------------------------------------------------------------|
    ----                  ----

Riff B - 0.27
|-------------------------------------------------------------------|
|-------------------------------------------------------------------|
|-------------------------------------------------------------------|
|-------------------------------------------------------------------|x2
|--------------------------------------------------3-333-5-5--------|
|-555555555555555511111111333333335555555555555555-1-111-3-3--------|
                                                     ---

0.37 - repeat Riff A x2

0.46 - repeat Riff B x1


Riff C - 0.50
|-------------------------------------------------------------------|
|-------------------------------------------------------------------|
|-555555555555555522222222444444445555555555555555------------------|
|-------------------------------------------------------------------|x1
|--------------------------------------------------3-333-5-5--------|
|--------------------------------------------------1-111-3-3--------|
                                                     ---

Riff D - 0.55                  (Tricky little bitch,its close though)
|-------12-12---12--12----------10/11-15p12p11\10-12/13-17p14p13\12-|
|-------16-16br-16br16br--------------------------------------------|
|-------------------------------------------------------------------|
|-22-222-----------------2-2222-------------------------------------|
|-22-222-----------------2-2222-------------------------------------|
|-00-000-----------------0-0000-------------------------------------|

|-------12-12--14---------------------------------------------------|
|-------16-16b-18b--------------------------------------------------|
|-------------------------------------------------------------------|
|-22-22------------2-22222-3--5-------------------------------------|x1
|-22-22------------2-22222-3--5-------------------------------------|
|-00-00------------0-00000-1--3-------------------------------------|


Riff E - 1.04                                    1.26
|-----------------------------------------|-------------------------|
|-----------------------------------------|-------------------------|
|-----------------------------------------|-------------------------|
|-7------7------7------7--------3333-5555-|x6----7------------------|x1
|-7-2222-7-2222-7-2222-7-222222-3333-5555-|------7------------------|
|-5-0000-5-0000-5-0000-5-000000-1111-3333-|------5-3b/17------------|
    ----   ----   ----   ------ ---- ----

Outro - 1.29
|-------------------------------------------------------------------|
|-------------------------------------------------------------------|
|--------------------------0-2-4------------------------------------|
|-77----77----77----77-----3-5-7------------------------------------|x1
|-77-22-77-22-77-22-77-22--3-5-7------------------------------------|
|-55-00-55-00-55-00-55-00--1-3-5------------------------------------|
     --    --    --    --

End.

  Visit MetalTabs.com for more metal tablature

bottom separator

Contact Us | Privacy Policy | Disclaimer | Legal Notice
Copyright © 2001-2014 MetalTabs.com. All Rights Reserved.