top separator

Home

Forum

What's New

Submit a Tab

FAQ

Links

Contact Us

Link to Us

MetalTabs.com logo

Bands

0-9

A

B

C

D

E

F

G

H

I

J

K

L

M

N

O

P

Q

R

S

T

U

V

W

X

Y

Z

Search

What

Where
 

Illdisposed - "Kokaiinum" Guitar Tab

Plain Text Version
More Illdisposed Tabs

Hits: 2761
Updated: 2005-03-13 12:07:56

 

By:

Daniil

sendpm.gif

email.gif

Important note
This tab is available online because we obtained explicit permission from Illdisposed or their label.


#----------------------------------PLEASE NOTE---------------------------------#
#This file is the author's own work and represents their interpretation of the #
#song. You may only use this file for private study, scholarship, or research. #
#Unless specified otherwise, this is NOT an official tab from the band members.#
#------------------------------------------------------------------------------#

  Visit MetalTabs.com for more metal tablature
  
ILLDISPOSED-Kokaiinum
Kokaiinum-2001
Transcribed by Daniil Laletin
e-mail: dlaletin@mail.ru
version 1.0 December 2004

All corrections are welcome.

 " - tremolo
 / - slide down
 \ - slide up
 . - palm mute
 ~ - long sound
 x - rest
 p - pull off
 h - hammer on
 tr - trill
 () - ghost note, sustained note
 * - artificial harmonics
 b - bend

================================

 Intro
|-----------------------------------------------------------------------|
|-----------------------------------------------------------------------|
|-----------------------------------------------------------------------|
|-----------------------------------------------------------------------|gtr 1
|-----------------------------------------------------------------------|
|-0"------------------------------------------------4"----1"----0"------|
|
|-----------------------------------------------------------------------|
|-----------------------------------------------------------------------|
|-----------------------------------------------------------------------|
|-----------------------9-----------------------------------------------|gtr 2
|-9-10-------5-7-9-10---7-9-7-9-10------5-7-9-10------------------------|
|-7--8-------3-5-7--8-----7-5-7--8------3-5-7--8----4"----1"----0"------|



 Riff 1
|----------------------------------------------------------|
|----------------------------------------------------------|
|----------------------------------------------------------|
|------------9---------------------------------------------|
|-9/10-------7----9--7--9-10--------5--7--9-10-------------|
|-7/-8-0"-----00007005007--8-0"-----3005007--8-0"-----4"---|
                                                                         x2
|--------------------------------------------------------------------------|
|--------------------------------------------------------------------------|
|--------------------------------------------------------------------------|
|------------------------------9-------------------------------------------|
|-9/10-------5--7--9-10--------7----9--7--9-10-------5--7--9-10------------|
|-7/-8-0"----3005007--8-0"------00007005007--8-0"----3005007--8-0"----4"---|



 Riff 2
|------------------------------------------------------------|
|------------------------------------------------------------|
|------------------------------------------------------------|
|-8/9--------------------------------------------------------|
|-6/7-----------3-----5--------3/5--------------3----5-------|
|-6/7-000-0"----1-000-3-000-44-1/3-333-33333333-1-11-3-33-11-|
                            ..                    ..   .. ..

|-------------------------------------------------------------|
|-------------------------------------------------------------|
|-------------------------------------------------------------|
|-8/9---------------------------------------------------------|
|-6/7-----------3-----5--------3/5--------------6----3----5---|
|-6/7-000-0"----1-000-3-000-44-1/3-333-33333333---00---00---0-|
                            ..                    ..   ..   .


 Riff 3a
|--------------------------------------------------------------|
|--------------------------------------------------------------|
|--------------------------------------------------------------|
|--------------------------------------------------------------|
|--2---2----2----1---1---3/4-3/4-2---2----2----3---3---3/4-3/4-|
|----0---00---00---0---0-1/2-1/2---0---00---00---0---0-1/2-1/2-|
         ..   ..                       ..   ..


 Riff 4
|----------------------------------------------------------------------------|
|----------------------------------------------------------------------------|
|----------------------------------------------------------------------------|
|------444------777------444-4/5-4----------444------777------999-9/10-------|
|-2-2--222-2-2--555-2-2--222-2/3-2-333-2-2--222-2-2--555-2-2--777-7/-8-33333-|
|-0-0------0-0------0-0------------111-0-0------0-0------0-0-----------11111-|
    .        .        .                  .        .        .


 Riff 5a
|---------------------------------------|
|---------------------------------------|
|---------------------------------------|
|-------7/9-----5/7---4/5---------------|
|-2-----5/7-----3/5---2/3-----2-----2---|
|-0-000-----0-0-----0-----0-0-0-0-0-0---|

|---------------------------------------|
|---------------------------------------|
|---------------------------------------|
|-------7/9-----5/7---4/5---------------|
|-2-----5/7-----3/5---2/3-----3-----3---|
|-0-000-----0-0-----0-----0-0-1-0-0-1---|



 Riff 5b
|---------------------------------|
|---------------------------------|
|---------------------------------|
|-------7-----5---4---------------|
|-2-----5-----3---2-----2-----2---|
|-0-000---0-0---0---0-0-0-0-0-0---|

|---------------------------------|
|---------------------------------|
|---------------------------------|
|-------7-----5---4---------------|
|-2-----5-----3---2-----3-----3---|
|-0-000---0-0---0---0-0-1-0-0-1---|



 Riff 3a
|----------------------------------------------------------------|
|----------------------------------------------------------------|
|----------------------------------------------------------------|
|----------------------------------------------------------------|
|--2---2----2----1---1---3/4-3/4-2---2----2----3---3---6----3"---|
|----0---00---00---0---0-1/2-1/2---0---00---00---0---0-4"---1"---|
         ..   ..                       ..   ..


 Ending Riff
|--------------------------------------------------------------------|
|--------------------------------------------------------------------|
|--------------------------------------------------------------------|
|-----------------------9--------------------------------------------|
|-9-10-------5-7-9-10---7-9-7-9-10------5-7-9-10----------------2----|
|-7--8-------3-5-7--8-----7-5-7--8------3-5-7--8----4"----7"----0----|

  Visit MetalTabs.com for more metal tablature

bottom separator

Contact Us | Privacy Policy | Disclaimer | Legal Notice
Copyright © 2001-2014 MetalTabs.com. All Rights Reserved.