top separator

Home

Forum

What's New

Submit a Tab

FAQ

Links

Contact Us

Link to Us

MuSpy.com

MetalTabs.com logo

Bands

0-9

A

B

C

D

E

F

G

H

I

J

K

L

M

N

O

P

Q

R

S

T

U

V

W

X

Y

Z

Search

What

Where
 

Mindsnare (AU) - "The Death" Guitar Tab

Plain Text Version
More Mindsnare (AU) Tabs

Hits: 1951
Updated: 2005-03-13 12:03:24

 

By:

Meesh

sendpm.gif

email.gif

Important note
This tab is available online because we obtained explicit permission from Mindsnare (AU) or their label.


#----------------------------------PLEASE NOTE---------------------------------#
#This file is the author's own work and represents their interpretation of the #
#song. You may only use this file for private study, scholarship, or research. #
#Unless specified otherwise, this is NOT an official tab from the band members.#
#------------------------------------------------------------------------------#

  Visit MetalTabs.com for more metal tablature
  
Band:  Mindsnare
Album: The Death
Song:  The Death

Copyright (c)  Trial and Error 2004
Version 1.0 -  2004

Transcribed By: Mischa Antohe
Email:          demon_meesh@hotmail.com

Rythym ain't perfect so listen to the song.

-  = palm mute           /  = slide up to
\  = slide down to       b  = Bend
h  = hammer on
p  = pull off


Tunning Eb Ab Db Gb Bb Eb

Intro - 0.00
|-------------------------------------------------------------------|
|-------------------------------------------------------------------|
|-------------------------------------------------------------------|
|-------------------------------------------------------------------|x1
|-2222222--2222222----2222222--2222222------------------------------|
|-0000000--0000000----0000000--0000000------------------------------|
  -------  -------    -------  -------

Riff A - 0.03
|-------------------------------------------------------------------|
|-5-------------------5----------------------5----------------------|
|-3-------------------3----------------------3----------------------|
|------------5/8-5/8----------------5/8-5\4-------------5/8-5/8-----|
|--222222222-5/8-5/8----------------5/8-5\4---222222222-5/8-5/8-----|
|--000000000-3/6-3/6---333366662222-3/6-3\2---000000000-3/6-3/6-----|
   ---------           ------------           ---------
|-------------------------------------------------------------------|
|-5-----------------------------------------------------------------|
|-3-----------------------------------------------------------------|
|---------------5/4-55-4--------------------------------------------|x1
|---------------5/4-55-4--------------------------------------------|
|--333366662222-3/6-33-2--------------------------------------------|
   ------------     -

Riff B - 0.12
|-------------------------------------------------------------------|
|-------------------------------------------------------------------|
|-------------------------------------------------------------------|
|-2----3h4p3h4p3-2-5-2-----4p3h4p3-3-6-5--2----3h4p3h4p3-2-5-3------|
|-2-22-----------2-5-2--22---------3-6-5--2-22-----------2-5-3------|
|-0-00-----------0-3-0--00---------1-4-3--0-00-----------0-3-1------|
    --                  --                  --
|-------7/8-7/8-7p4-------------------------------------------------|
|-------------------------------------------------------------------|
|-------------------------------------------------------------------|
|-33-33--------------2----3h4p3h4p3-2-5-2-----4p3h4p3-3-6-5--2------|
|-33-33--------------2-22-----------2-5-2--22---------3-6-5--2-22---|
|-11-11--------------0-00-----------0-3-0--00---------1-4-3--0-00---|
                       --                  --                  --
|-------------------------------------------------------------------|
|-------------------------------------------------------------------|
|-------------------------------------------------------------------|
|-3h4p3h4p3-2-5-3--33-33--7/5-5-------------------------------------|x1
|-----------2-5-3--33-33--7/5-5-------------------------------------|
|-----------0-3-1--11-11--5/6-6-------------------------------------|


0.28 - repeat Riff A x1 but finish with this...

|--------------|
|--------------|
|--------------|
|-5/8-54-54-54-|
|-5/8-54-54-54-|
|-3/6-32-32-32-|
      -  -  -

0.40 - repeat Riff B x1 but skip last 7 chords and play this...

|----------|
|----------|
|----------|
|-23-23-23-|
|-23-23-23-|
|-01-01-01-|
  -- -- --

Outro - 0.56
|--------------------------------|----------------------------------|
|-5---------------5--------------|---5------------------------------|
|-3---------------3--------------|---3------------------------------|
|--2-22-23-33-5-2--2-22-23-------|x4--2-----------------------------|x1
|--2-22-23-33-5-2--2-22-23-------|----2-----------------------------|
|--0-00-01-11-3-0--0-00-01-34313-|----0-----------------------------|
     -  -  -    -    -  -  -----

End.

  Visit MetalTabs.com for more metal tablature

bottom separator

Contact Us | Privacy Policy | Disclaimer | Legal Notice
Copyright © 2001-2014 MetalTabs.com. All Rights Reserved.