top separator

Home

Forum

What's New

Submit a Tab

FAQ

Links

Contact Us

Link to Us

MuSpy.com

MetalTabs.com logo

Bands

0-9

A

B

C

D

E

F

G

H

I

J

K

L

M

N

O

P

Q

R

S

T

U

V

W

X

Y

Z

Search

What

Where
 

Mindsnare (AU) - "Two Reasons Why" Guitar Tab

Plain Text Version
More Mindsnare (AU) Tabs

Hits: 1839
Updated: 2005-03-13 12:10:58

 

By:

Meesh

sendpm.gif

email.gif

Important note
This tab is available online because we obtained explicit permission from Mindsnare (AU) or their label.


#----------------------------------PLEASE NOTE---------------------------------#
#This file is the author's own work and represents their interpretation of the #
#song. You may only use this file for private study, scholarship, or research. #
#Unless specified otherwise, this is NOT an official tab from the band members.#
#------------------------------------------------------------------------------#

  Visit MetalTabs.com for more metal tablature
  
Band:  Mindsnare
Album: The Death
Song:  Two Reasons Why

Copyright (c) Trial and Error 2004
Version 1.0 - 2004

Transcribed By: Mischa Antohe
Email:          Demon_Meesh@hotmail.com

Rythym ain't perfect so listen to the cd.

-  = palm mute           /  = slide up to
\  = slide down to       b  = Bend
h  = hammer on
p  = pull off


Tunning Eb Ab Db Gb Bb Eb

Riff A - 0.00
|-------------------------------------------------------------------|
|-------------------------------------------------------------------|
|-------------------------------------------------------------------|
|-2--5--4--5--7-5-4-2--5--0-------33333------33333------------------|x2
|-2--5--4--5--7-5-4-2--5--4--55555------55555-----------------------|
|-0--3--2--3--5-3-2-0--3--2-----------------------------------------|
                             ---------- ----------
Fill - 0.16
|----------------0-0/0-00-00-00-00-00-0-----------------------------|
|----------------3-3/5-55-55-55-55-55-5-----------------------------|
|-------------------------------------------------------------------|
|-2-----7-5-4-2-----------------------------------------------------|x1
|-2-----7-5-4-2-----------------------------------------------------|
|-0-----5-3-2-0-----------------------------------------------------|


Riff B - 0.25
|-------------------------------------------------------------------|
|-------------------------------------------------------------------|
|-------------------------------------------------------------------|
|-------------------------------------------------------------------|
|-2222-2-2-2-5h6p5h6p5-22-54--2222-2-2-2-5h6p5h6p5-2-3-3-3--2222----|
|-0000-0-0-0-----------00-32--0000-0-0-0-----------0-1-1-1--0000----|
  ---- - - -           --     ---- - - -           - - - -  ----
|--------------------------------------------|----------------------|
|--------------------------------------------|----------------------|
|-----------------------------------------5-4|----------------------|
|---------------------------------------2----|----------------------|
|-2-2-2-5h6p5h6p5-22-54--3-2-2-2-5-6-22------|-2222-2-2-2-5h6p5h6p5-|
|-0-0-0-----------00-32--1-0-0-0-3-4-00------|-0000-0-0-0-----------|
  - - -           --       -   -     --        ---- - - -
|-------------------------------------------------------------------|
|-------------------------------------------------------------------|
|-------------------------------------------------------------------|
|-------------------------------------------------------------------|
|-22-54--2222-2-2-2-5h6p5h6p5-2-3-3-3--2222-2-2-2-5h6p5h6p5-22-54---|
|-00-32--0000-0-0-0-----------0-1-1-1--0000-0-0-0-----------00-32---|
  --     ---- - - -           - - - -  ---- - - -           --
|-------------------------------------------------------------------|
|-------------------------------------------------------------------|
|-------------------------------------------------------------------|
|-------------------------------------------------------------------|x1
|-3-2-2-2-5-6-------------------------------------------------------|
|-1-0-0-0-3-4-------------------------------------------------------|
    -   -

Riff C - 0.43
|-------------------------------------------------------------------|
|-------------------------------------------------------------------|
|-------------------------------------------------------------------|
|-2-2-2--------2-2-2--------77-7-7-7------33333------33333--2-2-2---|
|-2-2-2-2-222--2-2-2-2-222--77-7-7-7-55555------55555-------2-2-2---|
|-0-0-0-0-000--0-0-0-0-000--55-5-5-5------------------------0-0-0---|
        - ---        - ---           ---------- ----------
|-------------------------------------------------------------------|
|-------------------------------------------------------------------|
|-------------------------------------------------------------------|
|--------2-2-2--------00-0-0-0-5--7-5-4-----------------------------|x2
|-2-222--2-2-2-2-222--44-4-4-4-5--7-5-4-----------------------------|
|-0-000--0-0-0-0-000--22-2-2-2-3--5-3-2-----------------------------|
  - ---        - ---

Riff D - 1.01
|-------------------------------------------------------------------|
|-------------------------------------------------------------------|
|-------------------------------------5*----------------------------|
|-2------------------7-77777-5----5*5*---2--------------------------|
|-2-2222222222-5\4/5-7-77777-5-55--------2-2222222222222222---------|
|-0-0000000000-3\2/3-5-55555-3-33--------0-0000000000000000-3p2-0---|
    ----------                 --          ----------------
|-------------------------------------------------------------------|
|-------------------------------------------------------------------|
|---------------------------------------------------------5*--------|
|-0-0-00-0--0-000-00--2------------------7-77777-5----5*5*----------|
|-4-4-44-4--5-555-55--2-2222222222-5\4/5-7-77777-5-55---------------|
|-2-2-22-2--3-333-33--0-0000000000-3\2/3-5-55555-3-33---------------|
              ---       ----------                 --
|-------------------------------------------------------------------|
|-------------------------------------------------------------------|
|-------------------------------------------------------------------|
|-2----------------------0-0-00-0-0-000-0---------------------------|x1
|-2-2222-2222-2222-------4-4-44-4-5-555-5---------------------------|
|-0-0000-0000-0000-3p2-0-2-2-22-2-3-333-3---------------------------|
    ---- ---- ----                  ---

1.18 - repeat Riff C x2

1.36 - repeat Riff D x1

1.59 - repeat Fill   x1

2.01 - repeat First section of riff B x2


Outro - 2.19
|-------------------------------------------------------------------|
|----------------------------------------------------0--------------|
|--------------------------------------5-4-----------0--------------|
|------------------------------------2---------------0--------------|
|-2222-2222---2222-2-2-2-5h6p5h6p5-2-------2222-2222----2222-2-2-2--|
|-0000-0000---0000-0-0-0-----------0-------0000-0000----0000-0-0-0--|
  ---- ----   ---- - - -           -       ---- ----    ---- - - -
|-------------------------------------------------------------------|
|-------------------------------------------------------------------|
|---------------5-4-------------------------------------------------|
|-------------2-----3-2-5-6-----------------------------------------|x1
|-5h6p5h6p5-2-------3-2-5-6-----------------------------------------|
|-----------0-------1-0-3-4-----------------------------------------|
            -
End.

  Visit MetalTabs.com for more metal tablature

bottom separator

Contact Us | Privacy Policy | Disclaimer | Legal Notice
Copyright © 2001-2014 MetalTabs.com. All Rights Reserved.