top separator

Home

Forum

What's New

Submit a Tab

FAQ

Links

Contact Us

Link to Us

MuSpy.com

MetalTabs.com logo

Bands

0-9

A

B

C

D

E

F

G

H

I

J

K

L

M

N

O

P

Q

R

S

T

U

V

W

X

Y

Z

Search

What

Where
 

The Haunted - "Trespass" Bass Tab

Plain Text Version
More The Haunted Tabs

Hits: 3552
Rated: 4.00 out of 5 (1 vote)
Updated: 2005-03-13 11:47:01

 

By:

sendpm.gif

email.gif

Important note
This tab is available online because we obtained explicit permission from The Haunted or their label.


#----------------------------------PLEASE NOTE---------------------------------#
#This file is the author's own work and represents their interpretation of the #
#song. You may only use this file for private study, scholarship, or research. #
#Unless specified otherwise, this is NOT an official tab from the band members.#
#------------------------------------------------------------------------------#

  Visit MetalTabs.com for more metal tablature
  
Trespass
By: The Haunted
From: Made Me Do It

Tabbed By Nick

Standard Tunning E A D G

Chorus/Intro
|------------------------------------------------------------------------|
|------------------------------------------------------------------------|
|--------------------3-3-3-3-3-3-3-3-------------------------------------|
|--0-0-0-0-0-0-0-0--------------------3-3-3-3-3-3-3-3--5/-8--5/-7--------|x4


|------------------------------------------------------------------------|
|------------------------------------------------------------------------|
|--3-3-3-3-3-3-3-3-3-3-3-3-------------------5---------------------------|
|---------------------------3-3-3-3-3-3--1-4---4-------------------------|


|------------------------------------------------------------------------|
|-------------------6h7p6------------------------------------------------|
|------5---7---8----------7-8---5-8--------------------------------------|
|--0-0---0---0---0------------0------------------------------------------|

|------------------------------------------------------------------------|
|------------------------------------------------------------------------|
|--3-3-3-3-3-3-3-3-3-3-3-3-----------------------------------------------|
|--------------------------3-3-3-3-3-3-3-2~------------------------------|

|------------------------------------------------------------------------|
|------------------------------------------------------------------------|
|------------------------------------------------------------------------|
|--0-0-0-0-0-0-0-0-0-0-0-0-0-0-0-0--2/3-3\2------------------------------|

|------------------------------------------------------------------------|
|------------------------------------------------------------------------|
|--3-3-3-3-3-3-3-3-3-3-3-3-------------------5---------------------------|
|---------------------------3-3-3-3-3-3--1-4---4-------------------------|

|------------------------------------------------------------------------|
|------------------------------------------------------------------------|
|------2---3---5---3---0-3-2-0-------------------------------------------|
|--0-0---0---0---0---0---------------------------------------------------|

|------------------------------------------------------------------------|
|------------------------------------------------------------------------|
|--3-3-3-3-3-3-3-3-3-3-3-3-----------------------------------------------|
|--------------------------3-3-3-3-3-3-3-2-------------------------------|

|------------------------------------------------------------------------|
|------------------------------------------------------------------------|
|------------------------------------------------------------------------|
|--0-0-0-0-0-0-0-0-0-0-0-0-0-0-0-0--2/3-3\2------------------------------|

|------------------------------------------------------------------------|
|------------------------------------------------------------------------|
|--------------------3-3-3-3-3-3-3-3-------------------------------------|
|--0-0-0-0-0-0-0-0--------------------3-3-3-3-3-3-3-3--5/-8--5/-7--------|x2

|------------------------------------------------------------------------|
|------------------------------------------------------------------------|
|------------------------------------------------------2--5--2-----------|
|--0~----------1--5--7--8~-----------0~----------1--5-----------3~-------|

|------------------------------------------------------------------------|
|------------------------------------------------------------------------|
|--3-3-3-3-3-3-3-3-3-3-3-3-------------------5---------------------------|
|---------------------------3-3-3-3-3-3--1-4---4-------------------------|

|------------------------------------------------------------------------|
|-------------------6h7p6------------------------------------------------|
|------5---7---8----------7-8---5-8--------------------------------------|
|--0-0---0---0---0------------0------------------------------------------|

|------------------------------------------------------------------------|
|------------------------------------------------------------------------|
|--3-3-3-3-3-3-3-3-3-3-3-3-----------------------------------------------|
|--------------------------3-3-3-3-3-3-3-2-------------------------------|

|------------------------------------------------------------------------|
|------------------------------------------------------------------------|
|------------------------------------------------------------------------|
|--0-0-0-0-0-0-0-0-0-0-0-0-0-0-0-0--2/3-3\2------------------------------|

|------------------------------------------------------------------------|
|------------------------------------------------------------------------|
|--3-3-3-3-3-3-3-3-3-3-3-3-------------------5---------------------------|
|---------------------------3-3-3-3-3-3--1-4---4-------------------------|

|------------------------------------------------------------------------|
|------------------------------------------------------------------------|
|------2---3---5---3---0-3-2-0-------------------------------------------|
|--0-0---0---0---0---0---------------------------------------------------|

|------------------------------------------------------------------------|
|------------------------------------------------------------------------|
|--3-3-3-3-3-3-3-3-3-3-3-3-----------------------------------------------|
|--------------------------3-3-3-3-3-3-3-2-------------------------------|

|------------------------------------------------------------------------|
|------------------------------------------------------------------------|
|------------------------------------------------------------------------|
|--0-0-0-0-0-0-0-0-0-0-0-0-0-0-0-0--2/3-3\2------------------------------|

|------------------------------------------------------------------------|
|------------------------------------------------------------------------|
|--------------------3-3-3-3-3-3-3-3-------------------------------------|
|--0-0-0-0-0-0-0-0--------------------3-3-3-3-3-3-3-3--5/-8--5/-7--------|x2

|------------------------------------------------------------------------|
|------------------------------------------------------------------------|
|------------------------------------------------------2--5--2-----------|
|--0~----------1--5--7--8~-----------0~----------1--5-----------3~-------|x2

|------------------------------------------------------------------------|
|------------------------------------------------------------------------|
|--------------3-------2-----------------------------3----------1~-------|
|----------------5-5-5---3-3-3-----0~---0-0-0-0-0------------------------|

|------------------------------------------------------------------------|
|------------------------------------------------------------------------|
|--1~-------------------------------3-------2----------------------------|
|-----------0~--0-0-0-0-0-3-5-5-------5-5-5---3-3-3----------------------|

|------------------------------------------------------------------------|
|------------------------------------------------------------------------|
|----------------3~-----1~-------------------------------3-------2-------|
|--0~--0-0-0-0-0-----------------0~--0-0-0-0-0-3-5-5-------5-5-5---3-3-3-|

|------------------------------------------------------------------------|
|------------------------------------------------------------------------|
|----------------3~-----1~-----------------------------------------------|
|--0~--0-0-0-0-0---------------------------------------------------------|

|------------------------------------------------------------------------|
|------------------------------------------------------------------------|
|-------------4--4-4-3--3-2----------------------------------------------|
|--0--0--0--0------------------------------------------------------------|x3

|------------------------------------------------------------------------|
|------------------------------------------------------------------------|
|-------------4--4-4-3~--------------------------------------------------|
|--0--0--0--0--------------5~----3~----3--2-3-2~-------------------------|

|------------------------------------------------------------------------|
|------------------------------------------------------------------------|
|--3-3-3-3-3-3-3-3-3-3-3-3-------------------5---------------------------|
|---------------------------3-3-3-3-3-3--1-4---4-------------------------|

|------------------------------------------------------------------------|
|-------------------6h7p6------------------------------------------------|
|------5---7---8----------7-8---5-8--------------------------------------|
|--0-0---0---0---0------------0------------------------------------------|

|------------------------------------------------------------------------|
|------------------------------------------------------------------------|
|--3-3-3-3-3-3-3-3-3-3-3-3-----------------------------------------------|
|--------------------------3-3-3-3-3-3-3-2-------------------------------|

|------------------------------------------------------------------------|
|------------------------------------------------------------------------|
|------------------------------------------------------------------------|
|--0-0-0-0-0-0-0-0-0-0-0-0-0-0-0-0--2/3-3\2------------------------------|

|------------------------------------------------------------------------|
|------------------------------------------------------------------------|
|--3-3-3-3-3-3-3-3-3-3-3-3-------------------5---------------------------|
|---------------------------3-3-3-3-3-3--1-4---4-------------------------|

|------------------------------------------------------------------------|
|------------------------------------------------------------------------|
|------2---3---5---3---0-3-2-0-------------------------------------------|
|--0-0---0---0---0---0---------------------------------------------------|

|------------------------------------------------------------------------|
|------------------------------------------------------------------------|
|--3-3-3-3-3-3-3-3-3-3-3-3-----------------------------------------------|
|--------------------------3-3-3-3-3-3-3-2-------------------------------|

|------------------------------------------------------------------------|
|------------------------------------------------------------------------|
|------------------------------------------------------------------------|
|--0-0-0-0-0-0-0-0-0-0-0-0-0-0-0-0--2/3-3\2------------------------------|

|------------------------------------------------------------------------|
|------------------------------------------------------------------------|
|--------------------3-3-3-3-3-3-3-3-------------------------------------|
|--0-0-0-0-0-0-0-0--------------------3-3-3-3-3-3-3-3--5/-8--5/-7--------|x2

|------------------------------------------------------------------------|
|------------------------------------------------------------------------|
|------------------------------------------------------2--5--2-----------|
|--0~----------1--5--7--8~-----------0~----------1--5-----------3~-------|x3

|------------------------------------------------------------------------|
|------------------------------------------------------------------------|
|------------------------------------------------------2--5--2-----------|
|--0~----------1--5--7--8~-----------0~----------1--5-----------5-3-2-0~-|

  Visit MetalTabs.com for more metal tablature

bottom separator

Contact Us | Privacy Policy | Disclaimer | Legal Notice
Copyright © 2001-2014 MetalTabs.com. All Rights Reserved.