top separator

Home

Forum

What's New

Submit a Tab

FAQ

Links

Contact Us

Link to Us

MetalTabs.com logo

Bands

0-9

A

B

C

D

E

F

G

H

I

J

K

L

M

N

O

P

Q

R

S

T

U

V

W

X

Y

Z

Search

What

Where
 

Psycroptic - "Carnival Of Vulgarity" Guitar Tab

Plain Text Version
More Psycroptic Tabs

Hits: 2716
Rated: 5.00 out of 5 (3 votes)
Updated: 2005-12-17 20:38:37

 

By:

Meesh

sendpm.gif

email.gif

Important note
This tab is available online because we obtained explicit permission from Psycroptic or their label.


#----------------------------------PLEASE NOTE---------------------------------#
#This file is the author's own work and represents their interpretation of the #
#song. You may only use this file for private study, scholarship, or research. #
#Unless specified otherwise, this is NOT an official tab from the band members.#
#------------------------------------------------------------------------------#

  Visit MetalTabs.com for more metal tablature
  
Band:  Psycroptic
Album: The Isle of Disenchantment
Song:  Carnival of Vulgarity

Copyright (c) 2001
Version 1.0 - 2001

Transcribed By: Mischa Antohe
Email:          Demon_meesh@hotmail.com

-  = palm mute
\  = slide
b  = Bend
h  = hammer on
p  = pull off

Tuning - Db Ab Db Gb Bb Eb


    Intro
    Q=210
    N.C.
   3/4
    Gtrs I, II
    PM-------------------------------------------------
||--------------------------|-------------------------|
||o-------------------------|-------------------------|
||--------------------------|-------------------------|
||--------------------------|-------------------------|
||o-------------------------|-------------------------|
||--2-2-2-2-2-2-4-4-4-4-5-5-|-1-1-1-1-1-1-2-2-2-2-4-4-|


 --------------------------------------------------|
                                                      3x
|-------------------------|---------------------------||
|-------------------------|--------------------------o||
|-------------------------|---------------------------||
|-------------------------|---------------------------||
|-------------------------|--------------------------o||
|-2-2-2-2-2-2-4-4-4-4-5-5-|-/9-9-9-9-9-9-8-8-8-8-5-5--||


  PM-------------------------------------------------
|-------------------------|-------------------------|
|-------------------------|-------------------------|
|-------------------------|-------------------------|
|-------------------------|-------------------------|
|-------------------------|-------------------------|
|-2-2-2-2-2-2-4-4-4-4-5-5-|-1-1-1-1-1-1-2-2-2-2-4-4-|


                            B5 C5  EbE5Eb5
                           11/8
 -----------------------|        PM
|-------------------------|----------------------|
|-------------------------|----------------------|
|-------------------------|----------------------|
|-------------------------|-4/-5-5-------3-------|
|-------------------------|-2/-3-3-1S2S1-2-------|
|-2-2-2-2-2-2-4-4-4-4-5-5-|--------1S2S1---------|


   Intro Variation
    N.C.
   4/4
||----------------------------|
||o---------------------------|
||----------------------------|
||----------------------------|
||o---------------------------|
||--2-2-2-2-2-2-2h4h5-1-1-1-1-|


|-------------------------|-------------------------||
|-------------------------|------------------------o||
|-------------------------|-------------------------||
|-------------------------|-------------------------||
|-------------------------|------------------------o||
|-1-1-1h2h4-2-2-2-2-2-2-2h|=4h5-/9-9-9-9-9-9-8h9p8--||


 Intro (repeated)
  $$
  N.C.
 3/4
  PM-------------------------------------------------
|-------------------------|-------------------------|
|-------------------------|-------------------------|
|-------------------------|-------------------------|
|-------------------------|-------------------------|
|-------------------------|-------------------------|
|-2-2-2-2-2-2-4-4-4-4-5-5-|-1-1-1-1-1-1-2-2-2-2-4-4-|


 --------------------------------------------------|
|-------------------------|---------------------------|
|-------------------------|---------------------------|
|-------------------------|---------------------------|
|-------------------------|---------------------------|
|-------------------------|---------------------------|
|-2-2-2-2-2-2-4-4-4-4-5-5-|-/9-9-9-9-9-9-8-8-8-8-5-5--|


  PM-------------------------------------------------
|-------------------------|-------------------------|
|-------------------------|-------------------------|
|-------------------------|-------------------------|
|-------------------------|-------------------------|
|-------------------------|-------------------------|
|-2-2-2-2-2-2-4-4-4-4-5-5-|-1-1-1-1-1-1-2-2-2-2-4-4-|


              To Dbl. Coda
                           B5 C5    EbE5Eb5
 4/4
 -----------------------|         PM
|-------------------------------|----------------|
|-------------------------------|----------------|
|-------------------------------|----------------|
|--------------------------4/-5-|-5-------3------|
|--------------------------2/-3-|-3-1S2S1-2------|
|-2-2-2-2-2-2-4-4-4-4-5-5-------|---1S2S1--------|


 Section 1
  Q=225
  D5 N.C.            D5   N.C.                    D5
  PM                 PM                           PM
|-----------------------|----------------------------|
|-----------------------|----------------------------|
|-----------------------|----------------------------|
|-----------------------|----------------------------|
|-0--5-5-5-5-6-6-6-6-0--|-5-5-5-5-6-6-6-6-9-9-9-9-0--|
|-0------------------0--|-------------------------0--|


  N.C.
|-----------------------------|------------------|
|-----------------------------|------------------|
|-----------------------------|------------------|
|--------------------------9--|--(9)--8--5--5----|
|-5-5-5-5-6-6-6-6-9-9-9-9-10--|-(10)--9--6--6----|
|-----------------------------|------------------|


    D5 N.C.            D5   N.C.                    D5
    PM                 PM                           PM
||------------------------|----------------------------|
||o-----------------------|----------------------------|
||------------------------|----------------------------|
||------------------------|----------------------------|
||o-0--5-5-5-5-6-6-6-6-0--|-5-5-5-5-6-6-6-6-9-9-9-9-0--|
||--0------------------0--|-------------------------0--|


  N.C.
                                    PM----|
                                                  3x
|------------------------|------------------------||
|------------------------|-----------------------o||
|------------------------|------------------------||
|-----------------8---9--|--(9)--8--5-5-5-5-5-----||
|-5-5-5-5-6-6-6-6-9--10--|-(10)--9--6-6-6-6-6----o||
|------------------------|------------------------||


   Breakdown 1
    BbA5G5A5 G5 F#5  EbD5N.C.
    PM|              PM------------|           PM--|         PM----|
                                                                          4x
||-----------------|-----------------|---------------|--------------------||
||o----------------|-----------------|---------------|-------------------o||
||-----------------|-----------------|---------2-3-3-|--------------------||
||-----------------|-----------------|-4--0h1--------|-4h5p4-3-4-2-1------||
||o-8-7-5S7--5\-4--|-1-0-------------|---------------|---------------3---o||
||--8-7-5S7--5\-4--|-1-0-1-4-5-4-1-0-|---------------|--------------------||


 Section 1 (repeated)
  Q=225
  D5 N.C.            D5   N.C.                    D5
  PM                 PM                           PM
|-----------------------|----------------------------|
|-----------------------|----------------------------|
|-----------------------|----------------------------|
|-----------------------|----------------------------|
|-0--5-5-5-5-6-6-6-6-0--|-5-5-5-5-6-6-6-6-9-9-9-9-0--|
|-0------------------0--|-------------------------0--|


  N.C.
|-----------------------------|------------------|
|-----------------------------|------------------|
|-----------------------------|------------------|
|--------------------------9--|--(9)--8--5--5----|
|-5-5-5-5-6-6-6-6-9-9-9-9-10--|-(10)--9--6--6----|
|-----------------------------|------------------|


  D5 N.C.            D5   N.C.                    D5
  PM                 PM                           PM
|-----------------------|----------------------------|
|-----------------------|----------------------------|
|-----------------------|----------------------------|
|-----------------------|----------------------------|
|-0--5-5-5-5-6-6-6-6-0--|-5-5-5-5-6-6-6-6-9-9-9-9-0--|
|-0------------------0--|-------------------------0--|


  N.C.
                                    PM------------|
|------------------------|--------------------------|------------|
|------------------------|--------------------------|------------|
|------------------------|--------------------------|------------|
|-----------------8---9--|--(9)--8--5-5-5-5-5-5-5-5-|-5----------|
|-5-5-5-5-6-6-6-6-9--10--|-(10)--9--6-6-6-6-6-6-6-6-|-6----------|
|------------------------|--------------------------|------------|


 Section 2
  Q=215
  N.C.
|------------------------|----------------------------------|
|------------------------|----------------------------------|
|------------------------|----------------------------------|
|------------------------|-5-5-5-5-4-4-4-4------------------|
|--------3-3-3-3-6-6-6-6-|-----------------6-6-6-6-5-5-5-5--|
|-0h1-0------------------|----------------------------------|


|-----------------------|--------------------------|
|-----------------------|--------------------------|
|-----------------------|--------------------------|
|---------------8-8-8-8-|-7-7-7-7-5-5-5-5-4h5p4----|
|-3-3-3-3---------------|-----------------------6--|
|---------1--0----------|--------------------------|


|------------------------|----------------------------------|
|------------------------|----------------------------------|
|------------------------|----------------------------------|
|------------------------|-5-5-5-5-4-4-4-4------------------|
|--------3-3-3-3-6-6-6-6-|-----------------6-6-6-6-5-5-5-5--|
|-0h1-0------------------|----------------------------------|


  PM--------------------|      PM------------|
|----------------------------|-----------------------|
|----------------------------|-----------------------|
|----------------------------|-----------------------|
|----------------------------|-----------------------|
|----------------------------|-----------------6--5--|
|-3-3-3-3-5-5-5-5-6-6-6-6-8--|-3-3-3-3-5-5-5-5-------|


   Section 3
    Q=220
    $
    N.C.
    PM-------------------------------
||----------------------------------|
||o---------------------------------|
||----------------------------------|
||----------------------------------|
||o---------------------------------|
||--2-2-2-2-2-2-2-2-5-5-5-5-6-6-6-6-|


                               D5 F5 E5 G5   N.C.
 ---------------------------------------|
|----------------------------|-------------|------------------||
|----------------------------|-------------|-----------------o||
|----------------------------|-------------|------------------||
|----------------------------|-------------|------------------||
|----------------------------|-0--3--2--5--|-3-3-6p3-6p3-----o||
|-6-6-6-6-3-3-3-3-2-2-2-2-3--|-0--3--2--5--|-------------6p3--||


  E5 N.C.            G#5      D5    F5E5 F5 D5          F5    E5 G#5
                                               7/8
     PM------------|          PM--|         PM--------|
|-----------------------|---------------------|---------------------|
|-----------------------|---------------------|---------------------|
|-----------------------|---------------------|---------------------|
|-----------------------|---------------------|---------------------|
|-2------------------6--|-(6)-0-0-0-3-2--3--0-|-(0)-0-0-3-(3)-2--6--|
|-2--1-1-1-1-5-5-5-5-6--|-(6)-0-0-0-3-2--3--0-|-(0)-0-0-3-(3)-2--6--|


  Q=240
  N.C.
 4/4
              PM----|           PM----|
|---------------------|--------------------|
|---------------------|--------------------|
|---------------------|--------------------|
|---------------------|--------------------|
|-3-3-6p3-6p3-3-3-3-3-|-6p3-6p3-3-3-3-3-6--|
|---------------------|--------------------|


  N.C.
  PM----|         PM----|           PM----|
|-------------------------|--------------------|
|-------------------------|--------------------|
|-------------------------|--------------------|
|-------------------------|--------------------|
|-3-3-3-3-6p3-6p3-3-3-3-3-|-6p3-6p3-3-3-3-3-6--|
|-------------------------|--------------------|


                                          D.S. aTo Coda
    N.C.
                                                    2/4
    Gtr I
    PM----|         PM----|           PM----|
||--------------------------|---------------------||-----|
||o-------------------------|--------------------o||-----|
||--------------------------|---------------------||-----|
||--------------------------|---------------------||-----|
||o-3-3-3-3-6p3-6p3-3-3-3-3-|-6p3-6p3-3-3-3-3-6--o||-----|
||--------------------------|---------------------||-----|
|
|   Gtr II
||--------------------------|---------------------||-----|
||o-------------------------|--------------------o||-----|
||----------8---8-----------|-8---8-----------8---||-----|
||----------7---7-----------|-7---7-----------7---||-----|
||o-3-3-3-3-6---6---3-3-3-3-|-6---6---3-3-3-3-6--o||-----|
||--------------------------|---------------------||-----|


 Section 2 (repeated)
  Q=215
  N.C.
 4/4
  Gtrs I, II
|------------------------|---------------------------------|
|------------------------|---------------------------------|
|------------------------|---------------------------------|
|------------------------|-5-5-5-5-4-4-4-4-----------------|
|--------3-3-3-3-6-6-6-6-|-----------------6-6-6-6-5-5-5-5-|
|-0h1-0------------------|---------------------------------|


|-----------------------|------------------------------|
|-----------------------|------------------------------|
|-----------------------|------------------------------|
|---------------8-8-8-8-|-7-7-7-7-5-5-5-5-4h5p4--------|
|-3-3-3-3---------------|-----------------------6--(6)-|
|---------1--0----------|------------------------------|


|------------------------|----------------------------------|
|------------------------|----------------------------------|
|------------------------|----------------------------------|
|------------------------|-5-5-5-5-4-4-4-4------------------|
|--------3-3-3-3-6-6-6-6-|-----------------6-6-6-6-5-5-5-5--|
|-0h1-0------------------|----------------------------------|


                                                D.S.
  PM--------------------|      PM------------|
|----------------------------|-----------------------|
|----------------------------|-----------------------|
|----------------------------|-----------------------|
|----------------------------|-----------------------|
|----------------------------|-----------------6--5--|
|-3-3-3-3-5-5-5-5-6-6-6-6-8--|-3-3-3-3-5-5-5-5-------|


   Intro Variation (repeated)
    Q=210
    &
    N.C.
||----------------------------|
||o---------------------------|
||----------------------------|
||----------------------------|
||o---------------------------|
||--2-2-2-2-2-2-2h4h5-1-1-1-1-|


                                             D.S.S.
|-------------------------|---------------------------||
|-------------------------|--------------------------o||
|-------------------------|---------------------------||
|-------------------------|---------------------------||
|-------------------------|--------------------------o||
|-1-1-1h2h4-2-2-2-2-2-2-2h|=4h5-/9-9-9-9-9-9-8h9p8----||


   Breakdown 2
    Q=105
D.S. a&&Dbl. Coda
    B5 C5  EbE5Eb5          B5 C5  Bb5
   2/4
         PM                      PM
                     4x                4x
||-------------------||-||-------------||
||o-----------------o||-||o-----------o||
||-------------------||-||-------------||
||--4/-5-5-------3---||-||--4/-5-5-3---||
||o-2/-3-3-1S2S1-2--o||-||o-2/-3-3-1--o||
||---------1S2S1-----||-||-------------||


    B5 C5  E5 EbE5 EbD5        B5 C5 E5 EbE5 Eb5
         PM          PM
                       12x                       4x
||----------------------||-||--------------------||
||o--------------------o||-||o------------------o||
||----------------------||-||--------------------||
||--4/-5-5--------------||-||--4/-5--------------||
||o-2/-3-3-2\-1-2\-1-0-o||-||o-2/-3--2\-1-2\-1--o||
||---------2\-1-2\-1-0--||-||--------2\-1-2\-1---||


 Section 4
  Q=205
  B5   C5N.C.      C5N.C.                      C5    N.C.          C5 A5
 3/4
         PM------|   PM----------------------|       PM----------|
|------------|-----------------------|---------------------|-------------------|
|------------|-----------------------|---------------------|-------------------|
|------------|-----------------------|---------------------|-------------------|
|-4----5-----|-----5-----------------|---------5--5--------|-------5--2---(2)--|
|-2----3-2-2-|-2-2-3-2-2-2-2-2-2-2-2-|-2-2-2-2-3--3--2-2-2-|-2-2-2-3--0---(0)--|
|------------|-----------------------|---------------------|-------------------|


  C5        C5        C5                            C5
 4/4
    PM----|   PM----|   PM------------------------|
|---------------------------|-----------------------------|
|---------------------------|-----------------------------|
|---------------------------|-----------------------------|
|-5---------5---------5-----|-----------------------5--5--|
|-3-2-2-2-2-3-2-2-2-2-3-2-2-|-2-2-2-2-2-2-2-2-2-2-2-3--3--|
|---------------------------|-----------------------------|


  N.C.        C5A5           Eb5 F#5
  PM--------|
|---------------------|----------------|
|---------------------|----------------|
|---------------------|----------------|
|-------------5-2---5-|-(5)--8---11----|
|-2-2-2-2-2-2-3-0---3-|-(3)--6----9----|
|---------------------|----------------|


    C5N.C.    C5N.C.      C5N.C.
   3/4
      PM----|   PM----|     PM-------------------
||----------------------|-----------------------|
||o---------------------|-----------------------|
||----------------------|-----------------------|
||--5---------5---------|-5---------------------|
||o-3-2-2-2-2-3-2-2-2-2-|-3-2-2-2-2-2-2-2-2-2-2-|
||----------------------|-----------------------|


      C5    N.C.          C5 A5
                       5/8
 ---|       PM----------|
|---------------------|--------------
|---------------------|--------------
|---------------------|--------------
|-----5--5------------|---5--2---(2)-
|-2-2-3--3--2-2-2-2-2-|-2-3--0---(0)-
|---------------------|--------------


  C5        C5        C5                            C5
 4/4
    PM----|   PM----|   PM------------------------|
|---------------------------|-----------------------------|
|---------------------------|-----------------------------|
|---------------------------|-----------------------------|
|-5---------5---------5-----|-----------------------5--5--|
|-3-2-2-2-2-3-2-2-2-2-3-2-2-|-2-2-2-2-2-2-2-2-2-2-2-3--3--|
|---------------------------|-----------------------------|


  N.C.        C5A5           Eb5 F#5
  PM--------|
|---------------------|-----------------||
|---------------------|----------------o||
|---------------------|-----------------||
|-------------5-2---5-|-(5)--8---11-----||
|-2-2-2-2-2-2-3-0---3-|-(3)--6----9----o||
|---------------------|-----------------||


   Section 4A
    EbD5      EbD5      EbD5        F#A5     F#5 Eb5
      PM----|   PM----|   PM------|   ~      ~
||----------------------------|--------------------|
||o---------------------------|--------------------|
||----------------------------|-----6s9--(9)-6-----|
||--8-7-7-7-7-8-7-7-7-7-8-7-7-|-7-7-4s7--(7)-4---8-|
||o-6-5-5-5-5-6-5-5-5-5-6-5-5-|-5-5--------------6-|
||----------------------------|--------------------|


  D5      EbD5      Eb5   C5 EbD5
                         3/4
  PM----|   PM----|
|-----------------------|----------
|-----------------------|----------
|-----------------------|----------
|-7-7-7-7-8-7-7-7-7-8---|-5--8-7---
|-5-5-5-5-6-5-5-5-5-6---|-3--6-5---
|-----------------------|----------


  EbD5      EbD5      F#A5      F#5 EbD5      Eb5 D5      F#G5F#Eb5
 4/4
    PM----|   PM----|   ~       ~     PM----|     PM----|
|-------------------------|---------------------|---------------------||
|-------------------------|---------------------|--------------------o||
|---------------------6s9-|-(9)-6---------------|---------6-7-6-3-----||
|-8-7-7-7-7-8-7-7-7-7-4s7-|-(7)-4---8-7-7-7-7-8-|-7-7-7-7-4-5-4-1-----||
|-6-5-5-5-5-6-5-5-5-5-----|---------6-5-5-5-5-6-|-5-5-5-5------------o||
|-------------------------|---------------------|---------------------||


   Breakdown 3
    Q=65
    D5    EbF#5 Eb5C5D5  B5D5  F#5Eb5 D5    EbF#5 Eb5D5EbC5B5C5  EbD5
                                                                        2/4
    PM|     PM|      PM|   PM|        PM|     PM|    PM|     PM|
||----------------------------------|---------------------------------||-----|
||o---------------------------------|--------------------------------o||-----|
||----------------------------------|---------------------------------||-----|
||-----------------5-----4----------|--------------------5-4-5-5-8-7--||-----|
||o-0-0-0h1-4-4-1--3-0-0-2-0-0-4\-1-|-0-0-0h1-4-4-1--0-1-3-2-3-3-6-5-o||-----|
||--0-0-0h1-4-4-1----0-0---0-0-4\-1-|-0-0-0h1-4-4-1--0-1--------------||-----|


 Section 2 (repeated)
  Q=215
  N.C.
 4/4
|------------------------|---------------------------------|
|------------------------|---------------------------------|
|------------------------|---------------------------------|
|------------------------|-5-5-5-5-4-4-4-4-----------------|
|--------3-3-3-3-6-6-6-6-|-----------------6-6-6-6-5-5-5-5-|
|-0h1-0------------------|---------------------------------|


|-----------------------|------------------------------
|-----------------------|------------------------------
|-----------------------|------------------------------
|---------------8-8-8-8-|-7-7-7-7-5-5-5-5-4h5p4--------
|-3-3-3-3---------------|-----------------------6--(6)-
|---------1--0----------|------------------------------


|------------------------|----------------------------------|
|------------------------|----------------------------------|
|------------------------|----------------------------------|
|------------------------|-5-5-5-5-4-4-4-4------------------|
|--------3-3-3-3-6-6-6-6-|-----------------6-6-6-6-5-5-5-5--|
|-0h1-0------------------|----------------------------------|


  PM--------------------|      PM------------|
|----------------------------|-----------------------|
|----------------------------|-----------------------|
|----------------------------|-----------------------|
|----------------------------|-----------------------|
|----------------------------|-----------------6--5--|
|-3-3-3-3-5-5-5-5-6-6-6-6-8--|-3-3-3-3-5-5-5-5-------|


 Outro
  Q=210
  N.C.
 3/4
  PM-------------------------------------------------
|-------------------------|-------------------------|
|-------------------------|-------------------------|
|-------------------------|-------------------------|
|-------------------------|-------------------------|
|-------------------------|-------------------------|
|-2-2-2-2-2-2-4-4-4-4-5-5-|-1-1-1-1-1-1-2-2-2-2-4-4-|


 --------------------------------------------------|
|-------------------------|---------------------------|
|-------------------------|---------------------------|
|-------------------------|---------------------------|
|-------------------------|---------------------------|
|-------------------------|---------------------------|
|-2-2-2-2-2-2-4-4-4-4-5-5-|-/9-9-9-9-9-9-8-8-8-8-5-5--|


  PM-------------------------------------------------
|-------------------------|-------------------------|
|-------------------------|-------------------------|
|-------------------------|-------------------------|
|-------------------------|-------------------------|
|-------------------------|-------------------------|
|-2-2-2-2-2-2-4-4-4-4-5-5-|-1-1-1-1-1-1-2-2-2-2-4-4-|


                            B5 C5  EbE5Eb5
                           4/4
 -----------------------|        PM
|-------------------------|------------------*|
|-------------------------|------------------*|
|-------------------------|------------------*|
|-------------------------|-4/-5-5-------3---*|
|-------------------------|-2/-3-3-1S2S1-2---*|
|-2-2-2-2-2-2-4-4-4-4-5-5-|--------1S2S1-----*|

End.

  Visit MetalTabs.com for more metal tablature

bottom separator

Contact Us | Privacy Policy | Disclaimer | Legal Notice
Copyright © 2001-2014 MetalTabs.com. All Rights Reserved.