top separator

Home

Forum

What's New

Submit a Tab

FAQ

Links

Contact Us

Link to Us

MuSpy.com

MetalTabs.com logo

Bands

0-9

A

B

C

D

E

F

G

H

I

J

K

L

M

N

O

P

Q

R

S

T

U

V

W

X

Y

Z

Search

What

Where
 

Immortal - "Within the dark Mind" Guitar Tab

Plain Text Version
More Immortal Tabs

Hits: 5171
Rated: 2.14 out of 5 (7 votes)
Updated: 2005-03-10 16:31:45

 

By:

Necromajesty

sendpm.gif

email.gif

Important note
We did our best to reach Immortal and ask for their permission to publish this tab. Unfortunately they did not respond to our requests or we could not find a way to contact them. This tab is available online until Immortal tells us to take it down.


#----------------------------------PLEASE NOTE---------------------------------#
#This file is the author's own work and represents their interpretation of the #
#song. You may only use this file for private study, scholarship, or research. #
#Unless specified otherwise, this is NOT an official tab from the band members.#
#------------------------------------------------------------------------------#

  Visit MetalTabs.com for more metal tablature
  
Artist:Immortal
Song:Within The Dark Mind
Album:Sons Of Northern Darkness
Tuning:EADGBE

Copyright (c)  (Nuclearblast Records)  (2002)
Version 1.0 -  (12-22-2004)

Transcribed By:  (Necromajesty)
Email:           (Necromajesty@Hotmail.com)

Key
"=Tremolo Pick
..=Palm Mute
U=Up
t-tap

RiffA1
E|-------------|
B|-------------|
G|-------------|
D|-0-0-0-8-----]
A|-0-0-0-8-----]
E|-------------]


E|---------------------|
B|---------6-----------|
G|--------5------------|
D|0-0-0-8--------------|
A|0-0-0-8--------------|
E|---------------------|


D|0-0-0-8888-8888-10-10-10-10|
A|0-0-0-8888-8888-10-10-10-10|
E|------6666-6666-8--8--8--8-|

RiffA2
D|000-----000-------------------------|
A|000-3-1-000-3-1-1-1-1-0-3-1---------|

RiffA3
D|0000-22---------------------|
A|0000-22---------------------|
E|----------------------------|

RiffB1
D|000-1-2|
A|000-1-2|


D|0-3-3-3-3-5-5-5-6-6-6-0-3-3-3-3-5-5-5-6-6-6-6|

RiffC1
11 not 1,1
D|1111-0000-1111-000-9-0000-111|
A|1111-0000-1111-000-9-0000-111|


D|8888-7777-8888-10-7--8-7-8-7--7777-10-10-10-10-10|
A|6666-5555-6666-8--5-----------5555-8--8--8--8--8-|

Solo
G|7-7-777-999-1010-12-12-2-3---------------------|

Sorry I know the second part of the solo but i can't tab it

Any question Email me Necromajesty@Hotmail.com

  Visit MetalTabs.com for more metal tablature

bottom separator

Contact Us | Privacy Policy | Disclaimer | Legal Notice
Copyright © 2001-2014 MetalTabs.com. All Rights Reserved.