top separator

Home

Forum

What's New

Submit a Tab

FAQ

Links

Contact Us

Link to Us

MetalTabs.com logo

Bands

0-9

A

B

C

D

E

F

G

H

I

J

K

L

M

N

O

P

Q

R

S

T

U

V

W

X

Y

Z

Search

What

Where
 

Mindsnare (AU) - "Morning Tide" Guitar Tab

Plain Text Version
More Mindsnare (AU) Tabs

Hits: 1997
Updated: 2005-03-10 16:27:22

 

By:

Meesh

sendpm.gif

email.gif

Important note
This tab is available online because we obtained explicit permission from Mindsnare (AU) or their label.


#----------------------------------PLEASE NOTE---------------------------------#
#This file is the author's own work and represents their interpretation of the #
#song. You may only use this file for private study, scholarship, or research. #
#Unless specified otherwise, this is NOT an official tab from the band members.#
#------------------------------------------------------------------------------#

  Visit MetalTabs.com for more metal tablature
  
Band:  Mindsnare
Album: Mindsnare/Congress Split Cd
Song:  Mourning Tide

Copyright (c)  Trial and Error 1999
Version 1.0 -  1999

Transcribed By: Mischa Antohe
Email:          Demon_meesh@hotmail.com

Rythym ain't perfect so listen to the song.

-  = palm mute           /  = slide up to
\  = slide down to       b  = Bend
h  = hammer on           *  = natural harmonic
p  = pull off


Tunning Eb Ab Db Gb Bb Eb

Riff A - 0.00                          0.03
|---------------------------------|---------------------------------|
|---------------------------------|---------------------------------|
|-10-10101010-10-10101010-10-1010-|---------------------------------|
|-10-10101010-10-10101010-10-1010-|x3--2----------------------------|x1
|-8--8-8-8-8--8--8-8-8-8--8--8-8--|----2-let-ring-------------------|
|---------------------------------|----0----------------------------|
     - - - -     - - - -     - -

Riff B - 0.13. Pick slide in at 0.12.
|-------------------------------------------------------------------|
|-------------------------------------------------------------------|
|-------------------------------------------5/7-5-1010-101010-10-9--|
|-------------------------------------------------------------------|
|-33-333-3-2-222222222222-33-333-3-2-222222-3/5-3-8-8--8-8-8--8--7--|
|-11-111-1-0-000000000000-11-111-1-0-000000-------------------------|
             ------------            ------ 0.29
|-----------------------------------|-------------------------------|
|-----------------------------------|-------------------------------|
|--------------1010-1010--1010-1010-|-------------------------------|
|--------------9-9--9-9---9-9--9-9--|x2-----2-----------------------|
|-222222222222-7-7--7-7---7-7--7-7--|-------2--let-ring-------------|
|-000000000000----------------------|-------0-----------------------|
  ------------

Riff C - 0.31. Pick slide in at 0.30.
|-------------------------------------------------------------------|
|-------------------------------------------------------------------|
|--1212---1212--------1212-121212-1414-141414------1212---1212------|
|-------2------2-3----------------------------2---------2------2-3--|
|--1010-2-1010-2-3----1010-101010-1212-121212-2----1010-2-1010-2-3--|
|-------0------0-1----------------------------0---------0------0-1--|

|-------------------------------------------------------------------|
|-------------------------------------------------------------------|
|--1212-121212-1414-141414------------------------------------------|
|-------------------------------------------------------------------|x1
|--1010-101010-1212-121212------------------------------------------|
|-------------------------------------------------------------------|

Riff D - 0.44
|-------------------------------------------------------------------|
|-------------------------------------------------------------------|
|-------------------------------------------------------------------|
|--------5*----5*----5*--------------------------5*----5*----5*-----|
|-22-222---5*5*--5*5*--5*--22-222-545-754-22-222---5*5*--5*5*--5*---|
|-00-000-------------------00-000-323-532-00-000--------------------|
                                  --- ---
|-------------------------------------------------------------------|
|-------------------------------------------------------------------|
|-------------------------------------------------------------------|
|-------------------------------------------------------------------|x2
|-22-222-545--------------------------------------------------------|
|-00-000-323-5hb----------------------------------------------------|
         ---

1.01 - repeat Riff A x1

1.14 - repeat Riff B x2

1.32 - repeat Riff C x1

1.46 - repeat Riff D x2


Bridge - 2.03
|-------------------------------------------------------------------|
|-------------------------------------------------------------------|
|-------------------------------------------------------------------|
|-2----2--9---------------------------------------------------------|
|-2----2--9---------------------------------------------------------|
|-0----0--7---------------------------------------------------------|

Riff E - 2.12
|-------------------------------------------------------------------|
|-------------------------------------------------------------------|
|-------------------------------------------------------------------|
|-2--10\9--10\9--10\9--10\9--10\9--2--10\9--10\9--10\9--10-7-7------|x2
|-2--8-\7--8-\7--8-\7--8-\7--8-\7--2--8-\7--8-\7--8-\7--8--5-5------|
|-0--------------------------------0--------------------------------|


Riff F - 2.20
|-------------------------------------------------------------------|
|-------------------------------------------------------------------|
|-------------------------------------------------------------------|
|-2-----------------------2----------------7-7----------------------|x2
|-2--3p2-3p2-3p2-3p2-3p2--2--3p2-3p2-3p2-3-5-5----------------------|
|-0--1p0-1p0-1p0-1p0-1p0--0--1p0-1p0-1p0-1--------------------------|


2.27 - repeat Riff A x1


End.

  Visit MetalTabs.com for more metal tablature

bottom separator

Contact Us | Privacy Policy | Disclaimer | Legal Notice
Copyright © 2001-2014 MetalTabs.com. All Rights Reserved.