top separator

Home

Forum

What's New

Submit a Tab

FAQ

Links

Contact Us

Link to Us

MuSpy.com

MetalTabs.com logo

Bands

0-9

A

B

C

D

E

F

G

H

I

J

K

L

M

N

O

P

Q

R

S

T

U

V

W

X

Y

Z

Search

What

Where
 

Mindsnare (AU) - "To The Boil" Guitar Tab

Plain Text Version
More Mindsnare (AU) Tabs

Hits: 1529
Updated: 2005-11-27 23:58:14

 

By:

Meesh

sendpm.gif

email.gif

Important note
This tab is available online because we obtained explicit permission from Mindsnare (AU) or their label.


#----------------------------------PLEASE NOTE---------------------------------#
#This file is the author's own work and represents their interpretation of the #
#song. You may only use this file for private study, scholarship, or research. #
#Unless specified otherwise, this is NOT an official tab from the band members.#
#------------------------------------------------------------------------------#

  Visit MetalTabs.com for more metal tablature
  
Band:  Mindsnare
Album: The Death
Song:  To The Boil

Copyright (c)  Trial and Error 2004
Version 1.0 -  2004

Transcribed By: Mischa Antohe
Email:          Demon_Meesh@hotmail.com

Rythym ain't perfect so listen to the song.

-  = palm mute           s  = slide up to
\  = slide down to       b  = Bend
h  = hammer on           x  = staccato note
p  = pull off            ~  = Vibrato
[] = pinched harmonic

UPDATED on 24/11/05 - Changed lead fills, and one missed consistent
2nd note throughout the intro/outro. Added an extra note to some chords.

Tuning - 1/2 A Step Down - Eb Ab Db Gb Bb Eb

 Intro
  Q=120
  E5
 4/4
  Gtrs I, II
  PM|     PM|   PM----| ~~~
|---------------------------|
|---------------------------|
|-----4-4-----4-------------|
|-----3-3-----3-------------|
|-2-2-----2-2---2-2---2-----|
|-0-0-----0-0---0-0-2-0-2b3-|


  PM|     PM|   PM----|         PM|     PM|   PM----| ~~~
|-----------------------------|---------------------------|
|-----------------------------|---------------------------|
|-----4-4-----4---------------|-----4-4-----4-------------|
|-----3-3-----3---------[5]b6-|-----3-3-----3-------------|
|-2-2-----2-2---2-2---2-------|-2-2-----2-2---2-2---2-----|
|-0-0-----0-0---0-0-2-0-------|-0-0-----0-0---0-0-2-0-2b3-|


  N.C.
  PM---------------------------------------------------------------
|-----------------------------------------------------------------|
|-----------------------------------------------------------------|
|-----------------------------------------------------------------|
|-----------------------------------------------------------------|
|-----------------6-6-6-6-6-6-6-6-5-5-5-5-5-5-5-5-8-8-8-8-8-8-8-8-|
|-3-3-3-3-3-3-3-3-------------------------------------------------|


  E5
 ---|     PM|   PM----| ~~~   PM|     PM|   PM----|
|---------------------------|-----------------------------|
|---------------------------|-----------------------------|
|-----4-4-----4-------------|-----4-4-----4---------------|
|-----3-3-----3-------------|-----3-3-----3---------[5]b6-|
|-2-2-----2-2---2-2---2-----|-2-2-----2-2---2-2---2-------|
|-0-0-----0-0---0-0-2-0-2b3-|-0-0-----0-0---0-0-2-0-------|


  PM|     PM|   PM----| ~~~   PM-------------|
|---------------------------|-----------------|
|---------------------------|-----------------|
|-----4-4-----4-------------|-----------------|
|-----3-3-----3-------------|-----------------|
|-2-2-----2-2---2-2---2-----|-----------------|
|-0-0-----0-0---0-0-2-0-2b3-|-3-3-3-3-3-3-3-3-|


  N.C.
  PM----------------------------------------------
|-------------------------------------------------|
|-------------------------------------------------|
|-------------------------------------------------|
|-------------------------------------------------|
|-6-6-6-6-6-6-6-6-5-5-5-5-5-5-5-5-8-8-8-8-8-8-8-8-|
|-------------------------------------------------|


 -----------------------------------------------|
|----------------------------------------------------|
|----------------------------------------------------|
|----------------------------------------------------|
|----------------------------------------------------|
|-----------------6-6-6-6-6-6-6-6-5-5-5-5-5-5-5-5-3--|
|-3-3-3-3-3-3-3-3------------------------------------|


   Verse (Slow)
    Q=105
    G5F#E5                      G5F#E5
        PM|   PM----|   PM|         PM|   PM--------|   PM----|
||----------------------------|-----------------------------------|
||o---------------------------|-----------------------5---------5-|
||----------------------------|-----------------------3---------3-|
||----------2---------2-----2-|---------2-------------2---------2-|
||o-5S4-2-2-2-2-2-2-2-2-2-2-2-|-5S4-2-2-2-2-2-2-2-2-2---2-2-2-2---|
||--3S2-0-0-0-0-0-0-0-0-0-0-0-|-3S2-0-0-0-0-0-0-0-0-0---0-0-0-0---|


                              Q=110
    F#5                       N.C.
      PM|   PM----|   PM|     PM------------------------------|
|---------------------------|---------------------------------|
|---------------------------|---------------------------------|
|---------------------------|---------------------------------|
|---------2---------2-----2-|---------------------------------|
|-5S4-2-2-2-2-2-2-2-2-2-2-2-|-----------------6-6-6-6-6-6-6-6-|
|-3S2-0-0-0-0-0-0-0-0-0-0-0-|-3-3-3-3-3-3-3-3-----------------|


|----------------------------------||
|---------------------------------o||
|----------------------------------||
|----------------------------------||
|----------------------------------||
|-5-5-5-5-5-5-5-5-8-8-8-8-8-8-8-8-o||

|-------------------------------------------------------|
|-------------------------------------------------------|
|-----------------8-8-8-8-8-8-8-8-7-7-7-7-7-7-7-7-5-----|
|-5-5-5-5-5-5-5-5---------------------------------------|
|-------------------------------------------------------|
|-------------------------------------------------------|


 Verse (Fast)
  Q=195
  E5             G5F#5       C5B5  N.C.
        PM----|
|--------------------|-------------------|
|--------------------|-------------------|
|--------------------|-------------------|
|-2-2-2--------------|-------5S4-4-3-3-3-|
|-2-2-2-2-2-2-2--5S4-|-(4)-4-3S2-2-2-2-2-|
|-0-0-0-0-0-0-0--3S2-|-(2)-2-------------|


                                    E5
                                          PM----|
|---------------------------|----------------------|
|---------7p5p0-5p3p0-5p3p0-|-3p1p0----------------|
|---------------------------|----------------------|
|-(3)-3-3-------------------|-------2-2-2----------|
|-(2)-2-2-------------------|-------2-2-2-2-2-2-2--|
|---------------------------|-------0-0-0-0-0-0-0--|


  G5F#5 C5B5  N.C.          E5
                   11/8
                            PM|
|-----------------|-------------7-7-7-7-|
|-----------------|-------------6-6-6-6-|
|-----------------|-------------4-4-4-4-|
|-------5S4-4-3-3-|-(3)-3-3-------------|
|-5S4-4-3S2-2-2-2-|-(2)-2-2-2-2---------|
|-3S2-2-----------|---------0-0---------|


  E5             G5F#5       C5B5  N.C.
 4/4
        PM----|
|--------------------|-------------------|
|--------------------|-------------------|
|--------------------|-------------------|
|-2-2-2--------------|-------5S4-4-3-3-3-|
|-2-2-2-2-2-2-2--5S4-|-(4)-4-3S2-2-2-2-2-|
|-0-0-0-0-0-0-0--3S2-|-(2)-2-------------|


                                    E5
                                          PM----|
|---------------------------|------------------------|
|---------7p5p0-5p3p0-5p3p0-|-3p1p0------------------|
|---------------------------|------------------------|
|-(3)-3-3-------------------|-------2-2-2------------|
|-(2)-2-2-------------------|-------2-2-2-2-2-2-2----|
|---------------------------|-------0-0-0-0-0-0-0----|


  G5F#5     C5B5  N.C.
                       11/8
|---------------------|---------------10-------7-------|
|---------------------|---------8p5p0----8p5p0---8p5p0-|
|---------------------|--------------------------------|
|-----------5S4-4-3-3-|-(3)-3-3------------------------|
|-5S4-(4)-4-3S2-2-2-2-|-(2)-2-2------------------------|
|-3S2-(2)-2-----------|--------------------------------|


 Chorus
  $
  A5            F/A             A5              B5A5      G5  E5
 4/4
        PM----|                                                     PM--|
|-------------------|-----------------|-----------------|-----------------|
|-------------------|-----------------|-----------------|-----------------|
|-------------------|-----------------|-----------------|-----------------|
|-2-2-2-2-2-2-2-3-3-|-(3)-3-3-3-2-2-2-|-(2)-2-2---------|-----2-2-2-------|
|-0-0-0-0-0-0-0-0-0-|-(0)-0-0-0-0-0-0-|-(0)-0-0-9S7-7-7S|=5-5-2-2-2-2-2-2-|
|-------------------|-----------------|---------7S5-5-5S|=3-3-0-0-0-0-0-0-|


  E5                       N.C.E5               A5              F/A
  PM--|        PM|             PM|                        PM--|
|--------6-6-6-----|-------0-------6-|-(6)-6-6--------|---------------------|
|--------5-5-5-----|---------0-----5-|-(5)-5-5--------|---------------------|
|--------3-3-3-----|---------------3-|-(3)-3-3--------|---------------------|
|------------------|-----2-----------|----------2-2-2-|-2-2-2-2-3-3-(3)-3-3-|
|-2-2-2--------2-2-|-(2)-2-----2-2---|----------0-0-0-|-0-0-0-0-0-0-(0)-0-0-|
|-0-0-0--------0-0-|-(0)-0-----0-0---|----------------|---------------------|


    N.C.                          E5
                                            PM|
|----------------|--------------------|---------6-6-|
|---8-8-8-8-8-10-|-(10)S8-8-12S10-----|---------5-5-|
|---x-x-x-x-x--x-|--(x)Sx-x--x--x-----|---------3-3-|
|-3-5-5-5-5-5--7-|--(7)S5-5--9S=7-2-2-|-2-2---------|
|-0--------------|----------------2-2-|-2-2-2-2-----|
|----------------|----------------0-0-|-0-0-0-0-----|


                        Q=185         Q=195
                               To Coda
          N.C.E5
 16/4
    PM|       PM|       PM  PM|   PM|             TP
|-6-------0-------6-6-6----------------------------------|
|-5---------0-----5-5-5----------------------------------|
|-3---------------3-3-3---4-----4------4-----------------|
|-------2-----------------3-----3------3-----------------|
|---2-2-2-----2-2-------2---2-2---2-2--------------------|
|---0-0-0-----0-0-------0---0-0---0-0---------x\-(x)\----|


 Verse (Fast)
  E5             G5F#5       C5B5  N.C.
 4/4
        PM----|
|--------------------|-------------------|
|--------------------|-------------------|
|--------------------|-------------------|
|-2-2-2--------------|-------5S4-4-3-3-3-|
|-2-2-2-2-2-2-2--5S4-|-(4)-4-3S2-2-2-2-2-|
|-0-0-0-0-0-0-0--3S2-|-(2)-2-------------|


                                    E5
                                          PM----|
|---------------------------|------------------------|
|---------7p5p0-5p3p0-5p3p0-|-3p1p0------------------|
|---------------------------|------------------------|
|-(3)-3-3-------------------|-------2-2-2------------|
|-(2)-2-2-------------------|-------2-2-2-2-2-2-2----|
|---------------------------|-------0-0-0-0-0-0-0----|


  G5F#5 C5B5  N.C.          E5
                   11/8
                            PM|
|-----------------|-------------7-7-7-7-|
|-----------------|-------------6-6-6-6-|
|-----------------|-------------4-4-4-4-|
|-------5S4-4-3-3-|-(3)-3-3-------------|
|-5S4-4-3S2-2-2-2-|-(2)-2-2-2-2---------|
|-3S2-2-----------|---------0-0---------|


  E5             G5F#5       C5B5  N.C.
 4/4
        PM----|
|--------------------|-------------------|
|--------------------|-------------------|
|--------------------|-------------------|
|-2-2-2--------------|-------5S4-4-3-3-3-|
|-2-2-2-2-2-2-2--5S4-|-(4)-4-3S2-2-2-2-2-|
|-0-0-0-0-0-0-0--3S2-|-(2)-2-------------|


                                    E5
                                          PM----|
|---------------------------|------------------------|
|---------7p5p0-5p3p0-5p3p0-|-3p1p0------------------|
|---------------------------|------------------------|
|-(3)-3-3-------------------|-------2-2-2------------|
|-(2)-2-2-------------------|-------2-2-2-2-2-2-2----|
|---------------------------|-------0-0-0-0-0-0-0----|


                                                    D.S.
  G5F#5     C5B5  N.C.
                       11/8
|---------------------|---------------10-------12--------|
|---------------------|---------8p5p0----8p5p0----8p5p0--|
|---------------------|----------------------------------|
|-----------5S4-4-3-3-|-(3)-3-3--------------------------|
|-5S4-(4)-4-3S2-2-2-2-|-(2)-2-2--------------------------|
|-3S2-(2)-2-----------|----------------------------------|


                         Breakdown/Outro
                          Nod Your Head :) Q=115
D.S& al Coda
                          E5
 13/8                    2/2
                          Gtrs I, II, III
                          PM|     PM|   PM----| ~~~
|---------------------||----------------------------|
|---------------------||o---------------------------|
|-4--------(4)--------||------4-4-----4-------------|
|-3--------(3)--------||------3-3-----3-------------|
|---------------------||o-2-2-----2-2---2-2---------|
|---------------12\---||--0-0-----0-0---0-0-2-0-2b3-|


  PM|     PM|   PM----|         PM|     PM|   PM----| ~~~
|-----------------------------|------------------------------|
|-----------------------------|------------------------------|
|-----4-4-----4---------------|-----4-4-----4----------------|
|-----3-3-----3---------[5]b6-|-----3-3-----3----------------|
|-2-2-----2-2---2-2---2-------|-2-2-----2-2---2-2---2--------|
|-0-0-----0-0---0-0-2-0-------|-0-0-----0-0---0-0-2-0-2b3----|


  N.C.
  PM---------------------------------------------------------------
|-----------------------------------------------------------------|
|-----------------------------------------------------------------|
|-----------------------------------------------------------------|
|-----------------------------------------------------------------|
|-----------------6-6-6-6-6-6-6-6-5-5-5-5-5-5-5-5-8-8-8-8-8-8-8-8-|
|-3-3-3-3-3-3-3-3-------------------------------------------------|


  E5
 ---|     PM|   PM----| ~~~   PM|     PM|   PM----|
|---------------------------|-----------------------------|
|---------------------------|-----------------------------|
|-----4-4-----4-------------|-----4-4-----4---------------|
|-----3-3-----3-------------|-----3-3-----3---------[5]b6-|
|-2-2-----2-2---2-2---2-----|-2-2-----2-2---2-2---2-------|
|-0-0-----0-0---0-0-2-0-2b3-|-0-0-----0-0---0-0-2-0-------|



  PM|     PM|   PM----| ~~~
|---------------------------|
|---------------------------|
|-----4-4-----4-------------|
|-----3-3-----3-------------|
|-2-2-----2-2---2-2---2-----|
|-0-0-----0-0---0-0-2-0-2b3-|


 1.
 N.C.
 PM---------------------------------------------------------------
|-----------------------------------------------------------------|
|-----------------------------------------------------------------|
|-----------------------------------------------------------------|
|-----------------------------------------------------------------|
|-----------------6-6-6-6-6-6-6-6-5-5-5-5-5-5-5-5-8-8-8-8-8-8-8-8-|
|-3-3-3-3-3-3-3-3-------------------------------------------------|


 ---------------------------------------------------------------|
|------------------------------------------------------------------||
|-----------------------------------------------------------------o||
|------------------------------------------------------------------||
|------------------------------------------------------------------||
|-----------------6-6-6-6-6-6-6-6-5-5-5-5-5-5-5-5-3-3-3-3-3-3-3-3-o||
|-3-3-3-3-3-3-3-3--------------------------------------------------||


  2.
  N.C.
  PM------------------------------------------------------------|
|-----------------------------------------------------------------|
|-----------------------------------------------------------------|
|-----------------------------------------------------------------|
|-----------------------------------------------------------------|
|-----------------6-6-6-6-6-6-6-6-5-5-5-5-5-5-5-5-8-8-8-8-8-8-8-8-|
|-3-3-3-3-3-3-3-3-------------------------------------------------|


|----------------------------------------------------*|
|----------------------------------------------------*|
|-----------------8-8-8-8-8-8-8-8-7-7-7-7-7-7-7-7-5--*|
|-5-5-5-5-5-5-5-5------------------------------------*|
|----------------------------------------------------*|
|----------------------------------------------------*|

End.

  Visit MetalTabs.com for more metal tablature

bottom separator

Contact Us | Privacy Policy | Disclaimer | Legal Notice
Copyright © 2001-2014 MetalTabs.com. All Rights Reserved.