top separator

Home

Forum

What's New

Submit a Tab

FAQ

Links

Contact Us

Link to Us

MuSpy.com

MetalTabs.com logo

Bands

0-9

A

B

C

D

E

F

G

H

I

J

K

L

M

N

O

P

Q

R

S

T

U

V

W

X

Y

Z

Search

What

Where
 

Visceral Bleeding (SE) - "Gasping.." Guitar Tab

Plain Text Version
More Visceral Bleeding (SE) Tabs

Hits: 3927
Rated: 4.00 out of 5 (2 votes)
Updated: 2005-03-10 16:21:48

 

By:

Yura

sendpm.gif

email.gif

Important note
This tab is available online because we obtained explicit permission from Visceral Bleeding (SE) or their label.


#----------------------------------PLEASE NOTE---------------------------------#
#This file is the author's own work and represents their interpretation of the #
#song. You may only use this file for private study, scholarship, or research. #
#Unless specified otherwise, this is NOT an official tab from the band members.#
#------------------------------------------------------------------------------#

  Visit MetalTabs.com for more metal tablature
  
--- VISCERAL BLEEDING ---
                                   "Gasping"
                     From album: "Remnants Of Deprivation"
                     Copyright Retribute Records 2003 
                     Version 1.0 (February 2005)
                     Transcribed by: Yura Kowalchuk
                     Contact:[yura@grindcore.net]
                             [yura_kowalchuk@mail.ru]
                     HOME PAGE:http://www.blood-scrapes.nm.ru

                            TABULATURE LEGEND:
                   " - tremolo             h - hammer on
                   ~ - vibrato             \ - slide down
                   p - pull off            / - slide down
                  tr - tremolo picking     ^ - pinch harmonics
                   = - sustained note      b - bend string
                p.m. - palm muting         t - tapping

TUNING: B [B, E, A, d, g, B]

[Intro part 1]
||-----------|-----------------------|-----------|-
||-----------|-----------------------|-----------|-
||-----------|-----------------------|-----------|-
||-----------|-----------------------|-----------|-
||-----------|-2------------------4--|-----------|-
||-------6\--|-0--6-5-3-0-6-5-3-0-2--|-----------|-
 |           | .  . . . . . . . . .  |           |
||-----------|-----------------------|-----------|-
||-----------|-----------------------|-----------|-
||-----------|-----------------------|-----------|-
||-----------|-----------------------|-2/6\5-----|-
||-----------|-2------------------4--|-2/6\5-----|-
||-------6\--|-0--6-5-3-0-6-5-3-0-2--|-----------|-
               .  . . . . . . . . .


-|----------------------------------|-
-|----------------------------------|-
-|----------------------------------|-
-|----------------------------------|-
-|-5--4--5--------5--4--------------|-
-|-3--2--3--------3--2--------------|-
 | .  .  .        .  .              |
-|----------------------------------|-
-|----------------------------------|-
-|----------------------------------|-
-|----------------------------------|-
-|-5--4--5--------5--4--2h3p2-4h7p4-|-
-|-3--2--3--5h8p5-3--2--------------|-
   .  .  .        .  .

[Intro part 2]
||-----------------------------------------------|
||-----------------------------------------------|
||-----------------------------------------------|
||-------------------------------------------^---|
||-5--------------------5--4--5--------5--4--1~--|
||-3--------------------3--2--3--------3--2------|
 | .                    .  .  .        .  .      |
||-----------------------------------------------|
||-----------------------------------------------|
||-----------------------------------------------|
||-------------------------------------------^---|
||-5--4h7p4-5h8p5-6h9p6-5--4--5--------5--4--1~--|
||-3--------------------3--2--3--5h8p5-3--2------|
   .                    .  .  .        .  .

[Riff 1a]
||----------------------------------|-
||----------------------------------|-
||----------------------------------|-
||----------------------------------|-
||-5--4--5--------5--4--2h3p2-4h7p4-|-
||-3--2--3--5h8p5-3--2--------------|-
 | .  .  .        .  .              |
||----------------------------------|-
||----------------------------------|-
||----------------------------------|-
||----------------------------------|-
||-5--4--5--------5--4--2h3p2-4h7p4-|-
||-3--2--3--5h8p5-3--2--------------|-
   .  .  .        .  .

-|-----------------------------------------------||
-|-----------------------------------------------||
-|-----------------------------------------------||
-|-------------------------------------------^---||
-|-5--4h7p4-5h8p5-6h9p6-5--4--5--------5--4--1~--||
-|-3--------------------3--2--3--5h8p5-3--2------||
 | .                    .  .  .        .  .       |
-|-----------------------------------------------||
-|-----------------------------------------------||
-|-----------------------------------------------||
-|-------------------------------------------^---||
-|-5--4h7p4-5h8p5-6h9p6-5--4--5--------5--4--1~--||
-|-3--------------------3--2--3--5h8p5-3--2------||
   .                    .  .  .        .  .

[Intro part 1(x2)]

[Riff 1b (x2)]
||----------------------------------|-
||----------------------------------|-
||----------------------------------|-
||----------------------------------|-
||-5--4--5--------5--4--2h3p2-4h7p4-|-
||-3--2--3--5h8p5-3--2--------------|-
 | .  .  .        .  .              |
||----------------------------------|-
||----------------------------------|-
||----------------------------------|-
||----------------------2h3p2-4h7p4-|-
||-5--4--5--------5--4--------------|-
||-3--2--3--5h8p5-3--2--------------|-


-|-----------------------------------------------||
-|-----------------------------------------------||
-|-----------------------------------------------||
-|-------------------------------5-----------^---||
-|-5--4h7p4-5h8p5-6h9p6-5--4--5--3-----5--4--1~--||
-|-3--------------------3--2--3--------3--2------||
 | .                    .  .  .  .     .  .       |
-|-----------------------------------------------||
-|-----------------------------------------------||
-|-----------------------------------------------||
-|----2h5p2-3h6p3-4h7p4----------------------^---||
-|-5--------------------5--4--5--------5--4--1~--||
-|-3--------------------3--2--3--5h8p5-3--2------||
   .                    .  .  .        .  .

[Outro 1]
||-------------------|----------------|----------------|---------|
||-------------------|----------------|----------------|---------|
||-------------------|----------------|----------------|---------|
||-------------------|----------------|----5p4---------|---------|
||-5-5-5-5-4-4-------|-4--------------|-5------6p5-----|-6---7---|
||-3-3-3-3-2-2-2h3h5-|-2--------------|-3----------7p6-|-3---4---|
 | . . . . . .       | .              | .              |         |
||-------------------|----------------|----------------|---------|
||-------------------|----------------|----------------|---------|
||-------------------|----------------|----------------|---------|
||-------------------|----------------|----2p1---------|---------|
||-5-5-5-5-4-4-------|-4--------------|-5------3p2-----|-6---7---|
||-3-3-3-3-2-2-2h3h5-|-2--2h3h5-3h4h6-|-3----------4p3-|-3---4---|
   . . . . . .         .                .

[Riff 2 (x2)]
||-------------------------|---------------------------|-
||-------------------------|---------------------------|-
||-------------------------|---------------------------|-
||-------5/7\2-------------|-------5/7\2---------------|-
||-5/7\2-5/7\0-------------|-5/7\2-5/7\0---------------|-
||-5/7\0-------0-0-0-0-0-0-|-5/7\0-------0-00-0-0-00-0-|-
 |             . . . . . . |             . .. . . .. . |
||-------------------------|---------------------------|-
||-------------------------|---------------------------|-
||-------------------------|---------------------------|-
||-------5/7\2-------------|-------5/7\2---------------|-
||-5/7\2-5/7\0-------------|-5/7\2-5/7\0---------------|-
||-5/7\0-------0-0-0-0-0-0-|-5/7\0-------0-00-0-0-00-0-|-
               . . . . . .               . .. . . .. .

-|-------------------------|----------------------------||
-|-------------------------|----------------------------||
-|-------------------------|-------------4==------------||
-|-------5/7\2-------------|-------5/7\2-2==-^----------||
-|-5/7\2-5/7\0-------------|-5/7\2-5/7\0-2==-3~---------||
-|-5/7\0-------0-0-0-0-0-0-|-5/7\0--------------0-0-0-0-||
 |             . . . . . . |                    . . . .  |
-|-------------------------|----------------------------||
-|-------------------------|----------------------------||
-|-------------------------|-------------4==------------||
-|-------5/7\2-------------|-------5/7\2-2==-^----------||
-|-5/7\2-5/7\0-------------|-5/7\2-5/7\0-2==-3~---------||
-|-5/7\0-------0-0-0-0-0-0-|-5/7\0----------------------||
               . . . . . .

[Outro 2]
||----------------------------------|---------------------||
||----------------------------------|---------------------||
||----------------------------------|---------------------||
||-----------------3-3-3-3-3-3-3-3--|---------7-----6--5--||
||--2--2-2-2-2-2-2------------------|---------7--8--6--5--||
||--0-------------------------------|-0-0-0-0----8--------||
|   .  . . . . . . . . . . . . . .  | . . . .              |
||----------------------------------|---------------------||
||----------------------------------|---------------------||
||----------------------------------|---------------------||
||----------------------------------|---------7-----6--5--||
||--2-------------------------------|---------7--8--6--5--||
||--0-------------------------------|-0-0-0-0----8--------||
    .                                 . . . .

[Riff 3 (x2)]
||---------------------------------------------
||---------------------------------------------
||---------------------------------------------
||-----------2h5p2-1h4p1-----------------------
||---------------------------------3h6p3-2h5p2-
||-0-1-2h5p2-------------2-1-2h5p2-------------
 | . .                   . .
||---------------------------------------------
||---------------------------------------------
||---------------------------------------------
||-----------2h5p2-1h4p1-----------------------
||---------------------------------3h6p3-2h5p2-
||-0-1-2h5p2-------------2-1-2h5p2-------------
   . .                   . .
                                  [out]
--------------------------------||-------|
--------------------------------||-------|
-----------------------44444444-||-------|
-----------2h5p2-1h4p1----------||-------|
--------------------------------||-4-3---|
-0-1-2h5p2----------------------||-2-1---|
 . .                             | . .   |
--------------------------------||-------|
--------------------------------||-------|
-----------------------77777777-||-------|
-----------2h5p2-1h4p1----------||-------|
--------------------------------||-4-3---|
-0-1-2h5p2----------------------||-2-1---|
 . .                               . .

[RIFF 3 (x2)]

[Outro 3]
||---------------------------------|-------------------------|-
||---------------------------------|-------------------------|-
||---------------------------------|-------------------------|-
||-----------6h9p6-----------------|-------------6h9p6-------|-
||-----------------5h8p5-----------|-5h8p5-------------5h8p5-|-
||-0-1-4h7p4-------------0-1-4h7p4-|-------6h9p6-------------|-
|  . .                   . .       |                         |
||---------------------------------|-------------------------|-
||---------------------------------|-------------------------|-
||---------------------------------|-------------------------|-
||-----------6h9p6-----------------|-------------6h9p6-------|-
||-----------------5h8p5-----------|-5h8p5-------------5h8p5-|-
||-0-1-4h7p4-------------0-1-4h7p4-|-------6h9p6-------------|-
   . .                   . .

-|---------------------|------------||
-|---------------------|------------||
-|---------------------|------------||
-|---------------------|-2----------||
-|---5-4----5-7--------|-2--5-5-----||
-|-0------0------3-5-5-|----3-3-----||
 | . . .  . . .  . . . |             |
-|---------------------|------------||
-|---------------------|------------||
-|---------------------|------------||
-|---------------------|-2----------||
-|-2------5------3-----|-2--5-5-----||
-|-0------3------3-----|----3-3-----||
   .      .      .

[Riff 4 (x2)]
||-----------------------------|-
||-----------------------------|-
||-----------------------------|-
||---3h6p3---------3h6p3-------|-
||-----------2-5---------------|-
||-0-------0-----0-------4h7p4-|-
|  .       . . . .             |
||-----------------------------|-
||-----------------------------|-
||-----------------------------|-
||---3h6p3---------3h6p3-------|-
||-----------2-5---------------|-
||-0-------0-----0-------4h7p4-|-
           . . . .

-|-----------------------------|-------------------------||
-|-----------------------------|-------------------------||
-|-----------------------------|-4h7p4-------4h7p4-1h4p1-||
-|-3h6p3-2h5p2---3h6p3---------|-------3h6p3-------------||
-|-----------------------------|-------------------------||
-|-------------0-------0-4-7-0-|-------------------------||
 |             .       . . . . |                          |
-|-----------------------------|-------------------------||
-|-----------------------------|-------------------------||
-|-----------------------------|-4h7p4-------4h7p4-1h4p1-||
-|-3h6p3-2h5p2---3h6p3---------|-------3h6p3-------------||
-|-----------------------------|-------------------------||
-|-------------0-------0-4-7-0-|-------------------------||
               .       . . . .

[Outro 4]
||-----------------------------------------|-
||-----------------------------------------|-
||-----------------------------------------|-
||-----3h6p3-----3h6p3-----3h6p3-----3h6p3-|-
||-----------2-5-----------------2-5-------|-
||-1-0-----------------1-0-----------------|-
 | . .       . .       . .       . .       |
||-----------------------------------------|-
||-----------------------------------------|-
||-----------------------------------------|-
||-----3h6p3-----3h6p3-----3h6p3-----3h6p3-|-
||-----------2-5-----------------2-5-------|-
||-1-0-----------------1-0-----------------|-
   . .       . .       . .       . .

-|---------------------------------------------|-
-|---------------------------------------------|-
-|---------------------------3h6p3-------------|-
-|-----3h6p3-----3h6p3-2h5p2-------2h5p2-3h6p3-|-
-|-----------2-5-------------------------------|-
-|-1-0-----------------------------------------|-
 | . .       . .                               |
-|---------------------------------------------|-
-|---------------------------------------------|-
-|---------------------------3h6p3-------------|-
-|-----3h6p3-----3h6p3-2h5p2-------2h5p2-3h6p3-|-
-|-----------2-5-------------------------------|-
-|-1-0-----------------------------------------|-
   . .       . .

-|-----------------------------------------|-
-|-----------------------------------------|-
-|-----------------------------------------|-
-|-----3h6p3-----3h6p3-----3h6p3-----3h6p3-|-
-|-----------2-5-----------------2-5-------|-
-|-1-0-----------------1-0-----------------|-
 | . .       . .       . .       . .       |
-|-----------------------------------------|-
-|-----------------------------------------|-
-|-----------------------------------------|-
-|-----6h9p6-----6h9p6-----6h9p6-----6h9p6-|-
-|-----------5-8-----------------5-8-------|-
-|-1-0-----------------1-0-----------------|-
   . .       . .       . .       . .

-|----------------------------------------------||
-|----------------------------------------------||
-|---------------------4h=7p4-------------------||
-|-----3h6p3-----3h6p3--------3h6p3-2h5p2-3h6p3-||
-|-----------2-5--------------------------------||
-|-1-0------------------------------------------||
 | . .       . .                                 |
-|----------------------------------------------||
-|----------------------------------------------||
-|---------------------7h10p7-------------------||
-|-----6h9p6-----6h9p6--------6h9p6-5h8p5-6h9p6-||
-|-----------5-8--------------------------------||
-|-1-0------------------------------------------||
   . .       . .

[Riff 5 (x2)]
||-----------------------------|-----------------------------|-
||-----------------------------|-----------------------------|-
||-----------------------------|-----------------------------|-
||---3h6p3---------3h6p3-------|-3h6p3-2h5p2---3h6p3---------|-
||-----------2-5---------------|-----------------------------|-
||-0-------0-----0-------4h7p4-|-------------0-------0-4-7-0-|-
 | .       . . . .             |             .       . . . . |
||-----------------------------|-----------------------------|-
||-----------------------------|-----------------------------|-
||-----------------------------|-----------------------------|-
||---3h6p3---------3h6p3-------|-3h6p3-2h5p2---3h6p3---------|-
||-----------2-5---------------|-----------------------------|-
||-0-------0-----0-------4h7p4-|-------------0-------0-4-7-0-|-
   .       . . . .                           .       . . . .

-------------------------||
-------------------------||
-4h7p4-------4h7p4-1h4p1-||
-------3h6p3-------------||
-------------------------||
-------------------------||
                          |
-------------------------||
-------------------------||
-4h7p4-------4h7p4-1h4p1-||
-------3h6p3-------------||
-------------------------||
-------------------------||

[Outro 5]
||---------------|----------------------------------------------|-
||---------------|----------------------------------------------|-
||---------------|----------------------------------------------|-
||--------1-2----|-------------------------------3--2h5p2-1h4p1-|-
||-2--2-3-1-2-2--|-8"-5"-8"...-7"-4"-7"-8"-5"-6"-1--------------|-
||-0--2-3-----0--|----------------------------------------------|-
 | .  . . . . .  |                               .              |
||---------------|----------------------------------------------|-
||---------------|----------------------------------------------|-
||---------------|----------------------------------2h5p2-1h4p1-|-
||---------------|-------------------------------3--------------|-
||-2----------2--|-------------------------------1--------------|-
||-0----------0--|----------------------------------------------|-
   .          .                                  .

-|--------------------------------------------|-
-|--------------------------------------------|-
-|--------------------------------------------|-
-|--------------------------------------------|-
-|-8"-5"-8"-7"-4"-7"-8"-5"-8"-8-7h10p7-6h9p6--|-
-|----------------------------6---------------|-
 |                            .               |
-|--------------------------------------------|-
-|--------------------------------------------|-
-|--------------------------------------------|-
-|-6"-3"-6"-5"-2"-5"-6"-3"-6"---7h10p7-6h9p6--|-
-|----------------------------8---------------|-
-|----------------------------6---------------|-
                              .

-|-------------------------------------|-
-|-------------------------------------|-
-|-------------------------------------|-
-|-------------------------------------|-
-|-8"-5"-8"-7"-4"-7"-8-7h10p7-6h9p6-8--|-
-|-------------------6--------------6--|-
 |                   .              .  |
-|-------------------------------------|-
-|-------------------------------------|-
-|-------------------------------------|-
-|-6"-3"-6"-5"-2"-5"---7h10p7-6h9p6----|-
-|-------------------8--------------8--|-
-|-------------------6--------------6--|-
                     .              .

-|---------------------------------------------|------------||
-|---------------------------------------------|------------||
-|---------------------------------------------|------------||
-|---------------------------------------------|------------||
-|-7--7h10p7-6h9p6-8--7h10p7-6h9p6-8--7--6--7--|-6--9-10-9--||
-|-5---------------6---------------6--5--4--5--|-4--7--8-7--||
 | .               .               .  .  .  .  | .  .  . .   |
-|---------------------------------------------|------------||
-|---------------------------------------------|------------||
-|---------------------------------------------|------------||
-|----7h10p7-6h9p6----7h10p7-6h9p6-------------|------------||
-|-7---------------8---------------8--7--6--7--|-6--9-10-9--||
-|-5---------------6---------------6--5--4--5--|-4--7--8-7--||
   .               .               .  .  .  .    .  .  . .

[RIFF 5 (x2)] [OUTRO 4] [RIFF 5 (x2)]

[Riff 6 /under solo/]
||-----------------------------------------|-
||-----------------------------------------|-
||-----------------------------------------|-
||-----3h6p3-----3h6p3-----3h6p3-----3h6p3-|-
||-----------2-5-----------------2-5-------|-
||-1-0-----------------1-0-----------------|-
 | . .       . .       . .       . .       |
||-----------------------------------------|-
||-----------------------------------------|-
||-----------------------------------------|-
||-----3h6p3-----3h6p3-----3h6p3-----3h6p3-|-
||-----------2-5-----------------2-5-------|-
||-1-0-----------------1-0-----------------|-
   . .       . .       . .       . .


-|---------------------------------------------|-
-|---------------------------------------------|-
-|---------------------------3h6p3-------------|-
-|-----3h6p3-----3h6p3-2h5p2-------2h5p2-3h6p3-|-
-|-----------2-5-------------------------------|-
-|-1-0-----------------------------------------|-
 | . .       . .                               |
-|---------------------------------------------|-
-|---------------------------------------------|-
-|---------------------------3h6p3-------------|-
-|-----3h6p3-----3h6p3-2h5p2-------2h5p2-3h6p3-|-
-|-----------2-5-------------------------------|-
-|-1-0-----------------------------------------|-
   . .       . .

-|-----------------------------------------|----------------------------------||
-|-----------------------------------------|----------------------------------||
-|-----------------------------------------|---------------------------5--4---||
-|-----3h6p3-----3h6p3-----3h6p3-----3h6p3-|-----3h6p3-----3h6p3-5--4--3--2---||
-|-----------2-5-----------------2-5-------|-----------2-5-------3--2---------||
-|-1-0-----------------1-0-----------------|-1-0------------------------------||
 | . .       . .       . .       . .       | . .       . .       .  .  .  .    |
-|-----------------------------------------|----------------------------------||
-|-----------------------------------------|----------------------------------||
-|-----------------------------------------|---------------------------5--4---||
-|-----6h9p6-----6h9p6-----6h9p6-----6h9p6-|-----6h9p6-----6h9p6-5--4--3--2---||
-|-----------5-8-----------------5-8-------|-----------5-8-------3--2---------||
-|-1-0-----------------1-0-----------------|-1-0------------------------------||
   . .       . .       . .       . .         . .       . .       .  .  .  .

[Outro 6]
||-------------------|----------------|-----------------||
||-------------------|----------------|-----------------||
||-------------------|----------------|-----------------||
||-------------------|----------------|----5p4----------||
||-5-5-5-5-4-4-------|-4--------------|-5------6p5------||
||-3-3-3-3-2-2-2h3h5-|-2--------------|-3----------7p6--||
|  . . . . . .       | .              | .                |
||-------------------|----------------|-----------------||
||-------------------|----------------|-----------------||
||-------------------|----------------|-----------------||
||-------------------|----------------|----2p1----------||
||-5-5-5-5-4-4-------|-4--------------|-5------3p2------||
||-3-3-3-3-2-2-2h3h5-|-2--2h3h5-3h4h6-|-3----------4p3--||
   . . . . . .         .                .

[RIFF 3 (x2)] [out] [RIFF 3 (x2)]

[Outro 7]
||---------------------------------|-
||---------------------------------|-
||---------------------------------|-
||-----------6h9p6-----------------|-
||-----------------5h8p5-----------|-
||-0-1-4h7p4-------------0-1-4h7p4-|-
 | . .                   . .       |
||---------------------------------|-
||---------------------------------|-
||---------------------------------|-
||-----------6h9p6-----------------|-
||-----------------5h8p5-----------|-
||-0-1-4h7p4-------------0-1-4h7p4-|-
   . .                   . .

-|-------------------------|-------------------|-
-|-------------------------|-------------------|-
-|-------------------------|-------------------|-
-|-------------6h9p6-------|-------------------|-
-|-5h8p5-------------5h8p5-|---5-4---5-7-------|-
-|-------6h9p6-------------|-0-----0-----3-5-5-|-
 |                         | . . . . . . . . . |
-|-------------------------|-------------------|-
-|-------------------------|-------------------|-
-|-------------------------|-------------------|-
-|-------------6h9p6-------|-------------------|-
-|-5h8p5-------------5h8p5-|-2-----5-----3-----|-
-|-------6h9p6-------------|-2-----3-----3-----|-
                             .     .     .

-|-----------|-------------|-------------|---------------|-
-|-----------|-------------|-------------|---------------|-
-|-----------|-------------|-------------|-9------8--7---|-
-|-2----6----|-7-----6--5--|-7-----6--5--|-7--10--6--5---|-
-|-2----6----|-7--8--6--5--|-7--8--6--5--|-7---8--6--5---|-
-|-----------|----8--------|----8--------|-----8---------|-
 |           |             | .  .  .  .  |               |
-|-----------|-------------|-------------|---------------|-
-|-----------|-------------|-------------|---------------|-
-|-----------|-------------|-------------|-9------8--7---|-
-|-2----6----|-7-----6--5--|-7-----6--5--|-7--10--6--5---|-
-|-2----6----|-7--8--6--5--|-7--8--6--5--|-7---8--6--5---|-
-|-----------|----8--------|----8--------|-----8---------|-
                             .  .  .  .

-|---------------------------------------|--------------------------|---------||
-|---------------------------------------|--------------------------|---------||
-|---------------------------------------|--------------------------|---------||
-|---------------------------------------|--------------------------|---------||
-|-8--7h10p7-6h9p6-8--7--7h10p7-6h9p6-8--|-7h10p7-6h9p6-8--7--6--7--|-6---7---||
-|-6---------------6--5---------------6--|--------------6--5--4--5--|-3---4---||
 | .               .  .               .  |              .  .  .  .  |          |
-|---------------------------------------|--------------------------|---------||
-|---------------------------------------|--------------------------|---------||
-|---------------------------------------|--------------------------|---------||
-|----7h10p7-6h9p6-------7h10p7-6h9p6----|-7h10p7-6h9p6-------------|---------||
-|-8---------------8--7---------------8--|--------------8--7--6--7--|-6---7---||
-|-6---------------6--5---------------6--|--------------6--5--4--5--|-3---4---||
   .               .  .               .                 .  .  .  .

[RIFF 2 (x2)]

END OF SONG

  Visit MetalTabs.com for more metal tablature

bottom separator

Contact Us | Privacy Policy | Disclaimer | Legal Notice
Copyright © 2001-2014 MetalTabs.com. All Rights Reserved.