top separator

Home

Forum

What's New

Submit a Tab

FAQ

Links

Contact Us

Link to Us

MuSpy.com

MetalTabs.com logo

Bands

0-9

A

B

C

D

E

F

G

H

I

J

K

L

M

N

O

P

Q

R

S

T

U

V

W

X

Y

Z

Search

What

Where
 

Mindsnare (AU) - "Spore" Guitar Tab

Plain Text Version
More Mindsnare (AU) Tabs

Hits: 1764
Updated: 2005-03-10 16:20:09

 

By:

Meesh

sendpm.gif

email.gif

Important note
This tab is available online because we obtained explicit permission from Mindsnare (AU) or their label.


#----------------------------------PLEASE NOTE---------------------------------#
#This file is the author's own work and represents their interpretation of the #
#song. You may only use this file for private study, scholarship, or research. #
#Unless specified otherwise, this is NOT an official tab from the band members.#
#------------------------------------------------------------------------------#

  Visit MetalTabs.com for more metal tablature
  
Band:  Mindsnare
Album: Mindsnare/Congress split cd
Song:  Spore

Copyright (c)  Trial and Error 1999
Version 1.0 -  1999

Transcribed By: Mischa Antohe
Email:          Demon_meesh@hotmail.com

Rythym ain't perfect so listen to the song.

- = palm mute           /  = slide up to
\ = slide down to       b  = Bend
h = hammer on           Ph = pinched harmonic
p = pull off            *  = natural harmonic



Tunning Eb Ab Db Gb Bb Eb

Riff A - 0.00
|-------------------------------------------------------------------|
|-------------------------------------------------------------------|
|------------------5*-----------------------------------------------|
|-------------------------------------------------------------------|x2
|---------------33-------------------3333---------------------------|
|-1p0-00-1p0-00-11-----1p0-00-1p0-00-1111---------------------------|
                --                   ----

Riff B - 0.07
|-------------------------------------------------------------------|
|-------------------------------------------------------------------|
|----------------5nh------------------------------------------------|
|-------------------------------------------------------------------|x4
|-------------33-----------------3333-------------------------------|
|-1p0-0-1p0-0-11-----1p0-0-1p0-0-1111-------------------------------|
              --                 ----

Riff C - 0.21
|-------------------------------------------------------------------|
|-------------------------------------------------------------------|
|-------------------------------------------------------------------|
|-99-8--99-8--99-8--99-8--------------------------------------------|x1
|-77-6--77-6--77-6--77-6--------------------------------------------|
|-------------------------------------------------------------------|


0.24 - repeat Riff B x2

0.31 - repeat Riff c x1


Riff D - 0.35
|----|--------------------------------------------------------------|
|----|--------------------------------------------------------------|
|----|--------------------------------------------------------------|
|-2--|-----3333322222-----------------------------------------------|
|-2x1|---------------3333322222-2-22-2-22-222-2-22-3\5--2-22-2------|
|-0--|--------------------------0-00-0-00-000-0-00-1\3--0-00-0------|
                                  --   -- ---   --        --
|-------------------------------------------------------------------|
|-------------------------------------------------------------------|
|-------------------------------------------------------------------|
|-----------55555666665555------------------------3-333-3-3---------|x2
|-2222233333---------------2-22-2-22-222-2-22-3\5-1-111-1-1---------|
|--------------------------0-00-0-00-000-0-00-1\3-------------------|
                             --   -- ---   --
|-------------------------------------------------------------------|
|-------------------------------------------------------------------|
|-------------------------------------------------------------------|
|--3333322222-------------------------------------------------------|
|------------3333322222---------------------------------------------|
|-------------------------------------------------------------------|


Riff E - 1.03
|-------------------------------------------------------------------|
|-------------------------------------------------------------------|
|-------------------------------------------------------------------|
|------3p2p0------3p2p0------3p2p0-55-5-44-4------------------------|x2
|-22-2-------22-2-------22-2-------33-3-22-2------------------------|
|-00-0-------00-0-------00-0----------------------------------------|
  -- -       -- -       -- -
|-------------------------------------------------------------------|
|-------------------------------------------------------------------|
|-------------------------------------------------------------------|
|-------3p2p0-------3p2p0-------3p2p0-55-5-44-4---------------------|x2
|-22-22-------22-22-------22-22-------33-3-22-2---------------------|
|-00-00-------00-00-------00-00-------------------------------------|
  -- --       -- --       -- --

1.21 - repeat Riff A x2

1.28 - repeat Riff C x1


Riff F - 1.32
|-------------------------------------------------------------------|
|-------------------------------------------------------------------|
|-----------------------------10\9-7-9-912121212-1214141414---------|
|-----------44444---------------------------------------------------|
|-222222222-22222-5555-2-2222-8-\7-5-7-710101010-1012121212---------|
|-000000000-------3333-0-0000---------------------------------------|
                       -
|-------------------------------------------------------------------|
|-------------------------------------------------------------------|
|----------5*5*5*5*5*5*5*5*5*5*5*5*---------------------------------|
|-2-2-2-2---------------------------44444---------2-----9----2222---|
|-2-2-2-2---------------------------22222-5555-22-2-22--7-22-2222---|
|-0-0-0-0---------------------------------3333-00-0-00----00-0000---|
                                               --   --    --
|-------------------------------------------------------------------|
|-------------------------------------------------------------------|
|-12121212-1214141414-----------------------------------------------|
|-------------------------------------------------------------------|x1
|-10101010-1012121212-----------------------------------------------|
|-------------------------------------------------------------------|

Riff G - 1.48
|-------------------------------------------------------------------|
|-------------------------------------------------------------------|
|-------------------------------------------------------------------|
|------------------3-3-3--3-3-3------------------3-3-3--3-3-3-------|
|-2222222222222222-3-3-3--3-3-3-2222222222222222-3-3-3--3-3-3-------|
|-0000000000000000-1-1-1--1-1-1-0000000000000000-1-1-1--1-1-1-------|
  ----------------              ----------------
|-------------------------------------------------------------------|
|-------------------------------------------------------------------|
|-------------------------------------------------------------------|
|------------------3-3-3--3-3-3------------------2-3-5-6-5-8--------|x1
|-2222222222222222-3-3-3--3-3-3-2222222222222222-2-3-5-6-5-8--------|
|-0000000000000000-1-1-1--1-1-1-0000000000000000-0-1-3-4-3-6--------|
  ----------------              ----------------

2.02 - repeat Riff F x1

2.18 - repeat Riff G x1


Riff H - 2.32
|-------------------------------------------------------------------|
|-------------------------------------------------------------------|
|----------5*------------------------------5*-----------------------|
|--------------------3-3-3--3-3-3--------------------3-3-3--3-3-3---|
|-22222222----222222-3-3-3--3-3-3-22222222----222222-3-3-3--3-3-3---|
|-00000000----000000-1-1-1--1-1-1-00000000----000000-1-1-1--1-1-1---|
  --------    ------              --------    ------
|-------------------------------------------------------------------|
|-------------------------------------------------------------------|
|----------5*-----------------------------5*------------------------|
|--------------------3-3-3--3-3-3-------------------2-3-5-6-5-8-----|
|-22222222----222222-3-3-3--3-3-3-22222222---222222-2-3-5-6-5-8-----|
|-00000000----000000-1-1-1--1-1-1-00000000---000000-0-1-3-4-3-6-----|
  --------    ------              --------   ------

Outro - 2.46
|-------------------------------------------------------------------|
|----------------------------------------------5*-------------------|
|-----------------10-10-1010101010-------5*--------------10-10------|
|-2-2-2----2-2-2-------------------2-2-2-----5*---2-2-2-------------|
|-2-2-2----2-2-2--8--8--8-8-8-8-8--2-2-2---5*-----2-2-2--8--8-------|
|-0-0-0----0-0-0-------------------0-0-0----------0-0-0-------------|

|-------------------------------------------------------------------|
|-----------------------5*------------------------------------------|
|-1010101010-------5*-----5*----------10-10-1010101010--------------|
|------------2-2-2----------5*-2-2-2-------------------2-2-2--------|
|-8-8-8-8-8--2-2-2----5*-------2-2-2--8--8--8-8-8-8-8--2-2-2--------|
|------------0-0-0-------------0-0-0-------------------0-0-0--------|

|-----------------------------------------15\\\\\\\\----------------|
|-------5*----------------------------------------------------------|
|-5*------5*-------10-10-1010101010---------------------------------|
|---5*-------2-2-2------------------2-2-2------------2-2-2----------|
|-----5*-----2-2-2-8--8--8-8-8-8-8--2-2-2------------2-2-2----------|
|------------0-0-0------------------0-0-0------------0-0-0----------|

|-------------------------------------------------------------------|
|-------------------------------------------------------------------|
|-10-10-1010101010--------12phb--------10-10-1010101010-------------|
|------------------2-2-2--------2-2-2-------------------2-2-2-------|
|-8--8--8-8-8-8-8--2-2-2--------2-2-2--8--8--8-8-8-8-8--2-2-2-------|
|------------------0-0-0--------0-0-0-------------------0-0-0-------|

End

  Visit MetalTabs.com for more metal tablature

bottom separator

Contact Us | Privacy Policy | Disclaimer | Legal Notice
Copyright © 2001-2014 MetalTabs.com. All Rights Reserved.