top separator

Home

Forum

What's New

Submit a Tab

FAQ

Links

Contact Us

Link to Us

MuSpy.com

MetalTabs.com logo

Bands

0-9

A

B

C

D

E

F

G

H

I

J

K

L

M

N

O

P

Q

R

S

T

U

V

W

X

Y

Z

Search

What

Where
 

Mindsnare (AU) - "The Fall Back" Guitar Tab

Plain Text Version
More Mindsnare (AU) Tabs

Hits: 1826
Updated: 2005-03-10 16:18:49

 

By:

Meesh

sendpm.gif

email.gif

Important note
This tab is available online because we obtained explicit permission from Mindsnare (AU) or their label.


#----------------------------------PLEASE NOTE---------------------------------#
#This file is the author's own work and represents their interpretation of the #
#song. You may only use this file for private study, scholarship, or research. #
#Unless specified otherwise, this is NOT an official tab from the band members.#
#------------------------------------------------------------------------------#

  Visit MetalTabs.com for more metal tablature
  
Band:  Mindsnare
Album: Hanged, Choked, Wrist's Slit
Song:  The Fallback

Copyright (c)  Trial and Error 2001
Version 1.0 -  2001

Transcribed By: Mischa Antohe
Email:          Demon_meesh@hotmail.com

Rythym ain't perfect so listen to the song.

-  = palm mute
/  = slide up to
h  = hammer on
p  - pull off


Tunning Eb Ab Db Gb Bb Eb
Intro - 0.00
|-------------------------------------------------------------------|
|-------------------------------------------------------------------|
|-------------------------------------------------------------------|
|-2-----44444-2-----44444-44444-------------------------------------|x4
|-2-----22222-2-----22222-22222-------------------------------------|
|-0-----------0-----------------------------------------------------|
        -----       ----- -----
0.08 - 2nd Gtr comes in...
|-------------------------------------------------------------------|
|-------------------------------------------------------------------|
|-99999999-91010101010101010-1012121212121212-121414141414-1616-16--|
|-------------------------------------------------------------------|
|-77777777-78-8-8-8-8-8-8-8--8-10101010101010-101212121212-1414-14--|
|-------------------------------------------------------------------|

|-------------------------------------------------------------------|
|-------------------------------------------------------------------|
|-1717-17-----------------------------------------------------------|
|-------------------------------------------------------------------|x1
|-1515-15-----------------------------------------------------------|
|-------------------------------------------------------------------|

Riff A - 0.16
|-------------------------------------------------------------------|
|----00-0-00-0-00-----------00-0-00-0-00----------------------------|
|----44-5-55-5-55-----------44-5-55-5-55----------------------------|
|-2--44-----------33-33--2--44-----------222-333--------------------|x4
|-2---------------33-33--2---------------222-333--------------------|
|-0---------------11-11--0---------------000-111--------------------|

Riff B - 0.53
|-------------------------------------------------------------------|
|-------------------------------------------------------------------|
|--------------------------9/12-------------------------------------|
|-2-----------33-2----------------33-2-----------33-2---------------|
|-2-222222222-33-2-2222222-7/10-2-33-2-222222222-33-2-101010-888-777|
|-0-000000000-11-0-0000000------0-11-0-000000000-11-0---------------|
    ---------      -------      -      ---------      - - -  --- ---
|-------------------------------------------------------------------|
|-------------------------------------------------------------------|
|-9/12--------------------------------------------------------------|
|------33-----------------------------------------------------------|x2
|-7/10-33-----------------------------------------------------------|
|------11-----------------------------------------------------------|

Riff C - 1.13
|-------------------------------------------------------------------|
|-------------------------------------------------------------------|
|------2---------9/12-12-------2---------9/12-12-------2------------|
|-3-2--2-2--3-2-----------3-2--2-2--3-2-----------3-2--2-2--3-2-----|
|-3-2--0-2--3-2--7/10-10--3-2--0-2--3-2--7/10-10--3-2--0-2--3-2-----|
|-1-0----0--1-0-----------1-0----0--1-0-----------1-0----0--1-0-----|

|-------------------------------------------------------------------|
|-------------------------------------------------------------------|
|-9/12-12--1111----1111----11/12-12---------------------------------|
|-------------------------------------------------------------------|x2
|-7/10-10--9-9--22-9-9--22-9-/10-10---------------------------------|
|---------------00------00------------------------------------------|
                --      --
1.34
|---|------------|--------------------------------------------------|
|---|------------|--------------------------------------------------|
|---|------------|-9/12------------------------------------9/12-----|
|-2-|------------|------33-2-----------33-2---------------------33--|
|-2-|-pick slide-|-7/10-33-2-222222222-33-2-101010-888-777-7/10-33--|
|-0-|------------|------11-0-000000000-11-0---------------------11--|
                             ---------      - - -  --- ---

1.44 - repeat Riff B x1

1.54 - repeat Riff C x2


Outro - 2.14
|-------------------------------------------------------------------|
|-------------------------------------------------------------------|
|-----------------------4444-------------------4444-----------------|
|-2---------------------3333-------------------3333-----------------|
|-2-----------------------------------------------------------------|
|-0----0-210-210-2-0000-------0-210-210-2-0000------0-210-210-2-----|
  -    - --- --- - ----       - --- --- - ----      - --- --- -
|-------------------------------------------------------------------|
|-------------------------------------------------------------------|
|------4444------------------4444-----------------4444--------------|
|------3333------------------3333-----------------3333--------------|
|-------------------------------------------------------------------|
|-0000------0-210-210-2-0000------0-210-210-210-21-----0-210-210----|
  ----      - --- --- - ----
|-------------------------------------------------------------------|
|-------------------------------------------------------------------|
|--------4444-----------------4444------------------4444------------|
|--------3333-----------------3333------------------3333------------|
|-------------------------------------------------------------------|
|-210-21------0-210-210-210-21-----0-210-210-210-21-----------------|

End

  Visit MetalTabs.com for more metal tablature

bottom separator

Contact Us | Privacy Policy | Disclaimer | Legal Notice
Copyright © 2001-2014 MetalTabs.com. All Rights Reserved.