top separator

Home

Forum

What's New

Submit a Tab

FAQ

Links

Contact Us

Link to Us

MetalTabs.com logo

Bands

0-9

A

B

C

D

E

F

G

H

I

J

K

L

M

N

O

P

Q

R

S

T

U

V

W

X

Y

Z

Search

What

Where
 

Mindsnare (AU) - "In Reach Of No Man" Guitar Tab

Plain Text Version
More Mindsnare (AU) Tabs

Hits: 1734
Updated: 2005-03-10 15:56:51

 

By:

Meesh

sendpm.gif

email.gif

Important note
This tab is available online because we obtained explicit permission from Mindsnare (AU) or their label.


#----------------------------------PLEASE NOTE---------------------------------#
#This file is the author's own work and represents their interpretation of the #
#song. You may only use this file for private study, scholarship, or research. #
#Unless specified otherwise, this is NOT an official tab from the band members.#
#------------------------------------------------------------------------------#

  Visit MetalTabs.com for more metal tablature
  
Band:  Mindsnare
Album: Hanged, Choked, Wrist's Slit
Song:  In Reach of No Man

Copyright (c)  Trial and Error 2001
Version 1.0 -  2001

Transcribed By: Mischa Antohe
Email:          Demon_meesh@hotmail.com


-  = palm mute           /  = slide up to
\  = slide down to       ~  = vibrato
h  = hammer on           b  = Bend
p  = pull off
*  = Natural Harmonic

Rythym ain't perfect so listen to the song.


Tunning Eb Ab Db Gb Bb Eb

Riff A - 0.00
|-------------------------------------------------------------------|
|-------------------------------------------------------------------|
|-------------------------------------------------------------------|
|---------9\10---------10\12----3-----------------------------------|
|-222-222-7\8--2-222-2-8-\10-22-3-----------------------------------|x4
|-000-000------0-000-0-------00-1-----------------------------------|
  --- ---      - --- -       --
Riff B - 0.09
|-------------------------------------------------------------------|
|-------------------------------------------------------------------|
|-------------------------------------------------------------------|
|-2-22--9\10-22-2-10\12-22-3----------------------------------------|
|-2-22--7\8--22-2-8-\10-22-3----------------------------------------|x4
|-0-00-------00-0-------00-1----------------------------------------|

Riff C - 0.19
|-------------------------------------------------------------------|
|-------------------------------------------------------------------|
|--------10--------------------10-------99-10-10-12-12-14-----------|
|-2-----8---2--3-3-6-6--2-----8-------------------------------------|
|-2--2\7----2--3-3-6-6--2--2\7---8-8-77-77-8--8--10-10-12-----------|
|-0---------0--1-1-4-4--0-------------------------------------------|
               -   -                 --
|---0--------0------------0-------1-0-------------------------------|
|-------------------------------------------------------------------|
|---8---10---8------------8---10------------------------------------|
|-2----8---2---3-3-6-6--2----8--------3-3-3-5-5-5-------------------|x1
|-2---7----2---3-3-6-6--2---7---8-----3-3-3-5-5-5-------------------|
|-0--------0---1-1-4-4--0-------------1-1-1-3-3-3-------------------|
               -   -                  - - - - - -
Riff D - 0.38
|-------------------------------------------------------------------|
|-------------------------------------------------------------------|
|-------------------------------------------------------------------|
|-3-2----------3-2-----------3-2----------3-2-3-6-5-3---------------|
|-3-2-22222222-3-2-2-222-222-3-2-22222222-3-2-3-6-5-3---------------|
|-1-0-00000000-1-0-0-000-000-1-0-00000000-1-0-1-4-3-1---------------|
      --------     - --- ---     --------
|-------------------------------------------------------------------|
|-------------------------------------------------------------------|
|-------------------------------------------------------------------|
|-3-2-10\13-3-2-10\13-------------------------------666666666666----|x3
|-3-2-8-\11-3-2-8-\11-888888888888888855555555555555----------------|
|-1-0-------1-0-----------------------------------------------------|
                      ------------------------------------------
Riff E - 1.06
|-------------------------------------------------------------------|
|-------------------------------------------------------------------|
|-------------------------0-----------------------------------------|
|-5---------------------5--5-4-4------------------------------------|x2
|-3----22-222-222-222-2-3-------22-222-222-222-2--------------------|
|---7~-00-000-000-000-0---------00-000-000-000-0--------------------|
       -- --- --- --- -         -- --- --- --- -

1.23 - repeat Riff C x1

1.42 - repeat Riff D x2

2.00 - repeat Riff E x2


Riff F - 2.17
|----00-0000-000-000-------00-0000-----000-00-----------------------|
|----55-6666-555-666-33----55-6666-333-555-66-----------------------|
|-------------------------------------------------------------------|
|-------------------------------------------------------------------|x2
|-22--------------------22------------------------------------------|
|-00--------------------00------------------------------------------|
  --                    --
2.27
|---00-0000-0-0-0-0-0----00-0000-----000-00-------------------------|
|---55-6666-6\8-6-5-6----55-6666-333-555-66-------------------------|
|-------------------------------------------------------------------|
|-------------------------------------------------------------------|x2
|-22------------------22--------------------------------------------|
|-00------------------00--------------------------------------------|
  --                  --

Riff G - 2.38
|-------------------------------------------------------------------|
|--------------------------------------5*5*5*5*---------------------|
|----------------------5*5*5*5*----------------5*5*5*5*-------------|
|------------------------------5*5*5*5*-----------------5*5*5*5*----|
|-22------22-2-5*5*5*5*---------------------------------------------|
|-00------00-0------------------------------------------------------|
  --      -- -
|-----------------12------------------------------------------------|
|-----------------16b-----------------------------------------------|
|-------------------------------------------------------------------|
|-------------------------------------------------------------------|x1
|-22----22-0g0g0g---------------------------------------------------|
|-00----00-0g0g0g---------------------------------------------------|
  --    --

2.47 - repeat Riff A x4

2.57 - repeat Riff B x4 hold last chord...


Riff H(outro) - 3.15
|-------------------------------------------------------------------|
|-------------------------------------------------------------------|
|---------------------999-10-10---------------------999-10-10-------|
|-2-2-2--2-2-2--2-2-2-----------2-2-2--2-2-2--2-2-2-----------------|
|-2-2-2--2-2-2--2-2-2-777-8--8--2-2-2--2-2-2--2-2-2-777-8--8--------|
|-0-0-0--0-0-0--0-0-0-----------0-0-0--0-0-0--0-0-0-----------------|
  - - -  - - -  - - -           - - -  - - -  - - -
|-------------------------------------------------------------------|
|-------------------------------------------------------------------|
|---------------------999-10-10-------------------------------------|
|-2-2-2--2-2-2--2-2-2-----------------------------------------------|x2
|-2-2-2--2-2-2--2-2-2-777-8--8--5---4-5-2-5p4-----------------------|
|-0-0-0--0-0-0--0-0-0-------------2-----0-----2---------------------|
  - - -  - - -  - - -                   -
|-------------------------------------------------------------------|
|-------------------------------------------------------------------|
|------------------------------999-10-10----------------------------|
|-------------------------------------------------------------------|
|-22222222--22222222--22222222-777-8--8--22222222--22222222---------|
|-00000000--00000000--00000000-----------00000000--00000000---------|
  --------  --------  --------           --------  --------
|-------------------------------------------------------------------|
|-------------------------------------------------------------------|
|----------999-10-10------------------------------999-10-10---------|
|-------------------------------------------------------------------|
|-22222222-777-8--8--22222222--22222222--22222222-777-8--8----------|
|-00000000-----------00000000--00000000--00000000-------------------|
  --------           --------  --------  --------
|-------------------------------------------------------------------|
|-------------------------------------------------------------------|
|-------------------------------------------------------------------|
|----------------2--------------------------------------------------|x1
|-5---4-5-2-5p4--2--------------------------------------------------|
|---2-----0----2-0--------------------------------------------------|
          -
End.

  Visit MetalTabs.com for more metal tablature

bottom separator

Contact Us | Privacy Policy | Disclaimer | Legal Notice
Copyright © 2001-2014 MetalTabs.com. All Rights Reserved.