top separator

Home

Forum

What's New

Submit a Tab

FAQ

Links

Contact Us

Link to Us

MuSpy.com

MetalTabs.com logo

Bands

0-9

A

B

C

D

E

F

G

H

I

J

K

L

M

N

O

P

Q

R

S

T

U

V

W

X

Y

Z

Search

What

Where
 

Moonsorrow - "Sankaritarina" Guitar Tab

Plain Text Version
More Moonsorrow Tabs

Hits: 3933
Rated: 4.00 out of 5 (1 vote)
Updated: 2005-02-17 15:16:11

 

By:

Powerkraut

sendpm.gif

email.gif

Important note
This tab is available online because we obtained explicit permission from Moonsorrow or their label.


#----------------------------------PLEASE NOTE---------------------------------#
#This file is the author's own work and represents their interpretation of the #
#song. You may only use this file for private study, scholarship, or research. #
#Unless specified otherwise, this is NOT an official tab from the band members.#
#------------------------------------------------------------------------------#

  Visit MetalTabs.com for more metal tablature
  
Band:  Moonsorrow
Album: Voimasta Ja Kunniasta
Song:  Sankaritarina

Copyright (c)  Spinefarm 2001
Version 1.0 - 2-15-2005

Transcribed By: Steven Lewis
Email:          hellboy@sfsu.edu

   This is all of the main parts of the song but it would be much appreciated
if one of you more talented tabbers would flesh out the tab and maybe tab out
the solo. Have fun!


.  - palm mute           /  - slide up to
\  - slide down to       ~  - vibrato
h  - hammer on           b  - Bend
p  - pull off            Suffixes for bend
t  - tap                 f  - full bend    h - half bend
ph - pinched harmonic    q  - quarter bend t - tap bend
*  - see comment         ^  - Hold bend    r release bend
x  - Stuccatto           ~  - vibrato bend
,  - slight palm mute    () - ghost note, sustained note
"  - tremolo note        <> - Trill

Tunning E A D G B E


INTRO
 Riff 1a:
   Keyboard
e|------------------|------------------|------------------|------------------|
B|------------------|------------------|------------------|------------------|
G|------------------|------------------|------------------|------------------|
D|------------------|-5---4------------|------------------|------------------|
A|-----7-------5-7--|-------5-7--------|-----7-------5-7--|---5--------------|
E|-5----------------|------------------|-5----------------|-8---7-3-5--------|

 Riff 1b:
   Keyboard
e|------|
B|------|
G|------|
D|------|
A|------|
E|------|
 |      |
 | Guitar
e|------|
B|------|
G|------|
D|------|
A|-5-55-|
E|-3-33-|

   Keyboard
e|------------------|------------------|------------------|------------------|
B|------------------|------------------|------------------|------------------|
G|------------------|------------------|------------------|------------------|
D|------------------|-5---4------------|------------------|------------------|
A|-----7-------5-7--|-------5-7--------|-----7-------5-7--|---5--------------|
E|-5----------------|------------------|-5----------------|-8---7-3-5--------|
||                  |                  |                  |                  |
 | Guitar           |                  |                  |                  |
e|------------------|------------------|------------------|------------------|
B|------------------|------------------|------------------|------------------|
G|------------------|------------------|------------------|------------------|
D|------------------|------------------|------------------|------------------|
A|-7----------------|-------------5-55-|-7----------------|-------------5-55-|
E|-5----------------|-------------3-33-|-5----------------|-------------3-33-|


   Keyboard
e|------------------|------------------|------------------|------------------|
B|------------------|------------------|------------------|------------------|
G|------------------|------------------|------------------|------------------|
D|------------------|-5---4------------|------------------|------------------|
A|-----7-------5-7--|-------5-7--------|-----7-------5-7--|---5--------------|
E|-5----------------|------------------|-5----------------|-8---7-3-5--------|
 |                  |                  |                  |                  |
 | Guitar           |                  |                  |                  |
e|------------------|------------------|------------------|------------------|
B|------------------|------------------|------------------|------------------|
G|------------------|------------------|------------------|------------------|
D|------------------|------------------|------------------|------------------|
A|-7----------------|-------------5-55-|-7----------------|-3---5---7--------|
E|-5----------------|-------------3-33-|-5----------------|-1---3---5--------|

 Riff 1c:
   Keyboard
e|------------------|------------------|------------------|------------------|
B|------------------|------------------|------------------|------------------|
G|------------------|------------------|------------------|------------------|
D|------------------|-5---4------------|------------------|------------------|
A|-----7-------5-7--|-------5-7--------|-----7-------5-7--|---5--------------|
E|-5----------------|------------------|-5----------------|-8---7-3-5--------|
 |                  |                  |                  |                  |
 | Guitar           |                  |                  |                  |
e|------------------|------------------|------------------|------------------|
B|------------------|------------------|------------------|------------------|
G|------------------|------------------|------------------|------------------|
D|------------------|-5-557-77---------|------------------|------------------|
A|-7-777-777-777-77-|-3-335-557-777-77-|-7-777-777-777-77-|-3-335-557-777-77-|
E|-5-555-555-555-55-|---''--''5-555-55-|-5-555-555-555-55-|-1-113-335-555-55-|
     ''' ''  ''' ''             ''' ''     ''' ''  ''' ''     ''  ''  ''' ''
 Riff 2:
   Guitar
e|------------------|------------------|
B|------------------|------------------|
G|------------------|------------------|
D|-522-2-22---------|-522-2-2259977997-|
A|-300-0-00577-7-77-|-300-0-0037755775-|
E|---------355-5-55-|------------------|

 Riff 3:
   Guitar
e|------------------|
B|------------------|
G|------------------|
D|------------------|
A|-4-----------5-5--|
E|-2-----------3-3--|

 Riff 4a:
   Keyboard
e|------------------|------------------|------------------|------------------|
B|------------------|------------------|------------------|------------------|
G|------------------|------------------|------------------|------------------|
D|------------------|------------754---|------------------|------------------|
A|--7757------32----|--7757---------7--|--7757------32----|--7757---23--5-7--|
E|-5---------5--53--|-5----------------|-5---------5--53--|-5------5--53-----|
 |                  |                  |                  |                  |
 | Guitar           |                  |                  |                  |
e|------------------|------------------|------------------|------------------|
B|------------------|------------------|------------------|------------------|
G|------------------|------------------|------------------|------------------|
D|------------------|-------------5-5--|------------------|-------------3-5--|
A|-7-777-777-775-5--|-7-777-777-773-3--|-7-777-777-775-5--|-7-777-777-771-3--|
E|-5-555-555-553-3--|-5-555-555-55-----|-5-555-555-553-3--|-5-555-555-55-----|
     ''  ''  ''         ''  ''  ''         ''  ''  ''         ''  ''  ''
 Riff 4b:
   Keyboard
e|------------------|------------------|------------------|------------------|
B|------------------|------------------|------------------|------------------|
G|------------------|------------------|------------------|------------------|
D|------------------|-----------7-5----|----------------2-|-3-3532-----------|
A|-87535---3-7-5----|-87535---8-----7--|-87535---3-7-5-5--|-------3-5--------|
E|------------------|------------------|------------------|------------------|
 |                  |                  |                  |                  |
 | Guitar           |                  |                  |                  |
e|------------------|------------------|------------------|------------------|
B|------------------|------------------|------------------|------------------|
G|------------------|------------------|------------------|------------------|
D|-7-777-775-557-77-|-7-777-77----5-55-|-7-777-775-557-77-|------------------|
A|-5-555-553-335-55-|-5-555-553-333-33-|-5-555-553-335-55-|-8-887-775-555-55-|
E|---''--''--''--''-|---''--''1-11--''-|---''--''--''--''-|-6-665-553-333-33-|
                                ''                            ''  ''  ''  ''
   Keyboard
e|------------------|------------------|------------------|------------------|
B|------------------|------------------|------------------|------------------|
G|------------------|------------------|------------------|------------------|
D|------------------|-----------7-5----|----------------2-|-3-3532-----------|
A|-87535---3-7-5----|-87535---8-----7--|-87535---3-7-5-5--|-------3-5--------|
E|------------------|------------------|------------------|------------------|
 |                  |                  |                  |                  |
 | Guitar           |                  |                  |                  |
e|------------------|------------------|------------------|------------------|
B|------------------|------------------|------------------|------------------|
G|------------------|------------------|------------------|------------------|
D|-7-777-775-557-77-|-7-777-77----5-55-|-7-777-775-557-77-|-3-335-557-777-77-|
A|-5-555-553-335-55-|-5-555-553-333-33-|-5-555-553-335-55-|-1-113-335-555-55-|
E|---''--''--''--''-|---''--''1-11--''-|---''--''--''--''-|---''--''--''--''-|
                                ''
 Riff 5:
   Keyboard
e|---------5--------|------------------|
B|----------8656-5--|-6-------5--------|
G|-75323------------|-7-------6--------|
D|------------------|------------------|
A|------------------|------------------|
E|------------------|------------------|
 |                  |                  |
 | Guitar           |                  |
e|------------------|------------------|
B|------------------|------------------|
G|------------------|------------------|
D|-3----------------|------------------|
A|-1----------------|-5----------------|
E|------------------|-4----------------|

 Riff 6a:
   Keyboard
e|------------------|------------------|------------------|------------------|
B|------------------|------------------|------------------|------------------|
G|-----------54-----|------------------|-----------54-----|------------------|
D|-----7---57--57---|-----7---5753032--|-----7---57--57---|-575--------------|
A|-5----------------|-5--------------3-|-5----------------|----8787-----7----|
E|------------------|------------------|------------------|--------85-8---8--|

   Keyboard
e|------------------|------------------|------------------|------------------|
B|------------------|------------------|------------------|------------------|
G|-----------54-----|------------------|-----------54-----|------------------|
D|-----7---57--57---|-----7---5753032--|-----7---57--57---|-575--------------|
A|-5----------------|-5--------------3-|-5----------------|----8787-----5----|
E|------------------|------------------|------------------|--------85-8------|

 Riff 6b:
   Keyboard
e|------------------|------------------|------------------|------------------|
B|------------------|------------------|------------------|------------------|
G|-----------54-----|------------------|-----------54-----|------------------|
D|-----7---57--57---|-----7---5753032--|-----7---57--57---|-575--------------|
A|-5----------------|-5--------------3-|-5----------------|----8787-----7----|
E|------------------|------------------|------------------|--------85-8---8--|
 |                  |                  |                  |                  |
 | Guitar           |                  |                  |                  |
e|------------------|------------------|------------------|------------------|
B|------------------|------------------|------------------|------------------|
G|------------------|------------------|------------------|------------------|
D|-7-777-775-555-55-|-7-777-775-555-55-|-7-777-775-555-55-|-----5-55---------|
A|-5-555-553-333-33-|-5-555-553-333-33-|-5-555-553-333-33-|-3-333-337-777-77-|
E|---''--''3-333-33-|---''--''3-333-33-|---''--''3-333-33-|-1-11--''5-55--55-|
             ''  ''             ''  ''             ''  ''     ''      ''  ''
   Keyboard
e|------------------|------------------|------------------|------------------|
B|------------------|------------------|------------------|------------------|
G|-----------54-----|------------------|-----------54-----|------------------|
D|-----7---57--57---|-----7---5753032--|-----7---57--57---|-575--------------|
A|-5----------------|-5--------------3-|-5----------------|----8787-----5----|
E|------------------|------------------|------------------|--------85-8------|
 |                  |                  |                  |                  |
 | Guitar           |                  |                  |                  |
e|------------------|------------------|------------------|------------------|
B|------------------|------------------|------------------|------------------|
G|------------------|------------------|------------------|------------------|
D|-7-777-775-555-55-|-7-777-775-555-55-|-7-777-775-555-55-|-----5-55---------|
A|-5-555-553-333-33-|-5-555-553-333-33-|-5-555-553-333-33-|-3-333-337-777-77-|
E|---''--''3-333-33-|---''--''3-333-33-|---''--''3-333-33-|-1-11--''5-55--55-|
             ''  ''             ''  ''             ''  ''     ''      ''  ''
 Riff 7:
A bunch of Dm chords then a D5 buildup

 Riff 8:
   Guitar
e|------------------|------------------|------------------|------------------|
B|------------------|------------------|------------------|------------------|
G|------------------|------------------|------------------|------------------|
D|-7-777-7---5-7----|-7-777-7---5-7----|-3-333---5-555----|------------------|
A|-5-555-5---3-5----|-5-555-5---3-5----|-1-111---3-333----|-5-555-5---3-5----|
E|-'-''-------------|-'-''-------------|-'-''------''-----|-3-333-3---1-3----|
                                                              ''
 Riff 9: (under solo)
   Guitar
e|------------------|------------------|------------------|------------------|
B|------------------|------------------|------------------|------------------|
G|------------------|------------------|------------------|------------------|
D|-7-777-777-777-77-|-7-777-777-777-77-|-3-333-335-555-55-|-7-777-777-777-77-|
A|-5-555-555-555-55-|-5-555-555-555-55-|-1-111-113-333-33-|-5-555-555-555-55-|
E|-'-'''-'''-'''-''-|-'-'''-'''-''--''-|-'-'''-'''-'''-''-|-'-'''-'''-'''-''-|

Riff 10a:
   Bass
e|------------------|------------------|
B|------------------|------------------|
G|------------------|------------------|
D|------------------|------------------|
A|--------45-524----|-5-524------------|
E|-2--1245-------2--|-------2-421-2----|
 |                  |                  |
 | Guitar           |                  |
e|------------------|------------------|
B|------------------|------------------|
G|------------------|------------------|
D|------------------|------------------|
A|-4----------------|------------------|
E|-2----------------|------------------|

Riff 10b:
   Keyboard
e|------------------|------------------|
B|------------------|------------------|
G|------------------|------------------|
D|------------------|------------------|
A|--------45-524----|-5-524------------|
E|-2--1245-------2--|-------2-421-2----|
 |                  |                  |
 | Guitar           |                  |
e|------------------|------------------|
B|------------------|------------------|
G|------------------|------------------|
D|---------77776666-|-77776666---------|
A|-4444444455554444-|-5555444466664444-|
E|-22222222-'''-'''-|--'''-'''44442222-|
    ''' '''                   ''' '''
Riff 10c:
   Keyboard 1
e|------------------|------------------|
B|------------------|------------------|
G|------------------|------------------|
D|------------------|------------------|
A|--------45-524----|-5-524------------|
E|-2--1245-------2--|-------2-421-2----|
 |                  |                  |
 | Keyboard 2       |                  |
e|------------------|------------------|
B|------------------|------------------|
G|------------------|------------------|
D|------------------|------------------|
A|--------79-957----|-9-957------------|
E|-5--4579-------5--|-------5-754-5----|
 |                  |                  |
 | Guitar           |                  |
e|------------------|------------------|
B|------------------|------------------|
G|------------------|------------------|
D|---------77776666-|-77776666---------|
A|-4444444455554444-|-5555444466664444-|
E|-22222222-'''-'''-|--'''-'''44442222-|Fade out
    ''' '''                    ''' '''
Riff 11: (Fade in)
   Keyboard
e|------|---------12-----------------------|----------------------------------|
B|-1412-|-----14------1412----14-----------|---------12----1214------14--1412-|
G|------|-14--------------14------13--1113-|-14--1314----14-------------------|
D|------|-11------9-------11---------------|-----------------14---------------|
A|------|-9-------7-------9-------11-------|-12------14------12------11-------|
E|------|-------------------------9--------|-10------12--------------9--------|

   Keyboard
e|---------12-----------------------|----------------------------------|
B|-----14------1412----14-----------|-----------------------------1412-|
G|-14--------------14------13--1113-|-14--131113--9---11------11-------|
D|-11------9-------11---------------|-----------------11------11-------|
A|-9-------7-------9-------11-------|-12------11------9-------9--------|
E|-------------------------9--------|-10------9------------------------|Fade out

  Visit MetalTabs.com for more metal tablature

bottom separator

Contact Us | Privacy Policy | Disclaimer | Legal Notice
Copyright © 2001-2014 MetalTabs.com. All Rights Reserved.