top separator

Home

Forum

FAQ

Contact Us

Link to Us

MetalTabs.com logo

Bands

0-9

A

B

C

D

E

F

G

H

I

J

K

L

M

N

O

P

Q

R

S

T

U

V

W

X

Y

Z

Liturgy - "Dawn of Ash" Guitar Tab

Plain Text Version
More Liturgy Tabs

Hits: 4378
Rated: 5.00 out of 5 (4 votes)
Updated: 2005-02-16 10:02:45

By:

Yura


#----------------------------------PLEASE NOTE---------------------------------#
#This file is the author's own work and represents their interpretation of the #
#song. You may only use this file for private study, scholarship, or research. #
#Unless specified otherwise, this is NOT an official tab from the band members.#
#------------------------------------------------------------------------------#

  Visit MetalTabs.com for more metal tablature
  
--- LITURGY ---
                               "Dawn Of Ash"
                     From album: "Dawn Of Ash"
                     Copyright Unmatched Brutality 2004 
                     Version 1.0 (February 2005)
                     Transcribed by: Yura Kowalchuk
                     Contact:[yura@grindcore.net]
                             [yura_kowalchuk@mail.ru]
                     HOME PAGE:http://www.blood-scrapes.nm.ru

                            TABULATURE LEGEND:
                   " - tremolo             h - hammer on
                   ~ - vibrato             \ - slide down
                   p - pull off            / - slide down
                  tr - tremolo picking     ^ - pinch harmonics
                   = - sustained note      b - bend string
                p.m. - palm muting         t - tapping

TUNING: Mike Bailey use 7 string guitar with standart tuning
(lowest string is B)

Very fast!!!!

[Riff 1 (x4)]
-|---------------------------------|---------------------------------------|
-|---------------------------------|---------------------------------------|
-|---------------------------------|---------------------------------------|
-|---------------------------------|---------------------------------------|
-|---------------------------------|---------------------------------------|
-|---------------------------------|---------------------------------------|
-|-2-3-2-3-6-3-0-2-3-2-0-0-1-2-0-0-|-2-3-2-3-6-3-2-3-2-0-1-2-0-3h4p3-2h3p2-|
   . . . . . . . . . . . . . . . .   . . . . . . . . . . . . .

[Riff 2 (x4)]
-|-------------------------------------------|
-|-------------------------------------------|
-|-------------------------------------------|
-|-------------------------------------------|
-|-----------^------------^------------------|
-|-----------2~-----------1~-4-3-4/5-4-3-4/5-|
-|-2-3-2-3-2----2-3-2-3-2----2-1-2/3-2-1-2/3-|
   . . . . .    . . . . .    . .     . .

[Riff 3 (x8)]
-|-----------------------------|
-|-----------------------------|
-|-----------------------------|
-|-----------------------------|
-|-----------------------------|
-|-4\3---------4h5p4h5p4-3-5\3-|
-|-2\1-1-1-1-1-----------1-3\1-|
       . . . .           .

[Riff 4]
-|-------------------------------------|--------------------------------[x3]-|
-|-------------------------------------|-------------------------------------|
-|-------------------------------------|-------------------------------------|
-|-------------------------------------|-------------------------------------|
-|-------------------------------------|---------------------------------3---|
-|-4-3-3-4-3-3-3/4-5/6-4-3-3-4-3-2---2-|-4-3-3-4-3-3-3/4-5/6-4-3-3-4-3-2---2-|
-|-2-1-1-2-1-1-1/2-3/4-2-1-1-2-1---5---|-2-1-1-2-1-1-1/2-3/4-2-1-1-2-1-------|
   . . . . . .         . . . . .         . . . . . .         . . . . .

[outro]
-|----------0-----|
-|------------0---|
-|--------------4-|
-|----------------|
-|----------------|
-|-3-3-2===-------|
-|-1-1-0===-------|
   . .

[Riff 5 (x4)]
-|---------------------------------------------------------|
-|---------------------------------------------------------|
-|---------------------------------------------------------|
-|---------------------------------------------------------|
-|---------------------------------------------------------|
-|--------6-------------6-------------5-------------5------|
-|-7-77-7-7-77-7-7-77-7-7-77-7-6-66-6-6-66-6-6-66-6-6-66-6-|
   . .. . . .. . . .. . . .. . . .. . . .. . . .. . . .. .

[Riff 6 (x8)]
-|----------0---------------------|
-|------------0-------------------|
-|--------------4-----------------|
-|--------------------------------|
-|--------------------------------|
-|-3-3-2===-------3-3-2---2/3-2/6-|
-|-1-1-0===-------1-1-0---0/1-0/4-|
   . .            . .

[RIFF 1 (x4)] [RIFF 2 (x4)] [RIFF 6 (x8)]

SUPPORT UNDERGROUND!!!!

END OF SONG

  Visit MetalTabs.com for more metal tablature

bottom separator

Contact Us | Privacy Policy | Disclaimer
Copyright © 2001-2014 MetalTabs.com. All Rights Reserved.