top separator

Home

Forum

FAQ

Contact Us

Link to Us

MetalTabs.com logo

Bands

0-9

A

B

C

D

E

F

G

H

I

J

K

L

M

N

O

P

Q

R

S

T

U

V

W

X

Y

Z

Brodequin - "The Gridiron" Guitar Tab

Plain Text Version
More Brodequin Tabs

Hits: 6746
Rated: 5.00 out of 5 (1 vote)
Updated: 2005-02-16 10:02:10

By:

Yura


#----------------------------------PLEASE NOTE---------------------------------#
#This file is the author's own work and represents their interpretation of the #
#song. You may only use this file for private study, scholarship, or research. #
#Unless specified otherwise, this is NOT an official tab from the band members.#
#------------------------------------------------------------------------------#

  Visit MetalTabs.com for more metal tablature
  
--- BRODEQUIN ---
                               "The Grinderon"
                     From album: "Methods Of Execution"
                     Copyright Unmatched Brutality 2004 
                     Version 1.0 (February 2005)
                     Transcribed by: Yura Kowalchuk
                     Contact:[yura@grindcore.net]
                             [yura_kowalchuk@mail.ru]
                     HOME PAGE:http://www.blood-scrapes.nm.ru

                            TABULATURE LEGEND:
                   " - tremolo             h - hammer on
                   ~ - vibrato             \ - slide down
                   p - pull off            / - slide down
                  tr - tremolo picking     ^ - pinch harmonics
                   = - sustained note      b - bend string
                p.m. - palm muting         t - tapping

TUNING: Mike Bailey uses 7 string guitar with standart tuning
(lowest string is B)

[Riff 1 (x4)]
||--------------------------|------------------------------||
||--------------------------|------------------------------||
||--------------------------|------------------------------||
||-------------777777666666-|------------------------------||
||-----4-4-6-6-555555444444-|------------------------------||
||-4-4-2-2-4-4--------------|-4-4-333355556666555533335555-||
||-2-2----------------------|-2-2--------------------------||
   . .                        . .

       [Riff 2 (x4)]
|----||---------------------------------|-----------------------------||
|----||---------------------------------|-----------------------------||
|----||---------------------------------|-----------------------------||
|----||---------------------------------|-----------------------------||
|-8--||---------------------------------|---------------------8---8---||
|-6--||---------------------------------|---------------------6---6---||
|-6--||-2-2-2-2-3-3-2-2-3-5-3-2-2-2-3-3-|-2-2-2-2-6-6-5-5-0-0-6-0-6---||
                                                          . .   .
[Riff 3 (x4)]
||------------------------------------------------------------------||
||------------------------------------------------------------------||
||------------------------------------------------------------------||
||------------------------------------------------------------------||
||------------------------------------------------------------------||
||------------------------------------------------------------------||
||-0-0-0-0-1p0-0-0-3p0-0-0-3h5p3-[x3]-2-2-2-2-3p2-2-2-5p2-2-2-3h5p3-||

[Riff 4 (x4)]
||----------------------------------------||
||----------------------------------------||
||----------------------------------------||
||----------6--7--------------------------||
||----------4--5--------------5-----4-----||
||-4--------4--5--------3-----------------||
||-2--4-3-2-------2-2-2---2-2---2-2---2-2-||
      . . .       . . .   . .   . .   . .

[Riff 5 (x4)]
||-------------------------------------------------------------------||
||-------------------------------------------------------------------||
||-------------------------------------------------------------------||
||-------------------------------------------------------------------||
||---------------------------------------5-8-5---------------5-8-5---||
||-4---------------------------5-8-5---7-------7---5-8-5---7-------7-||
||-2--2-2-2-3-2-2-4-3-2-[x3]-6-------6-----------6-------6-----------||
      . . . . . . . . .

[RIFF 3 (x3)]

[Outro]
||----------------------------------------------------------------||
||----------------------------------------------------------------||
||----------------------------------------------------------------||
||----------------------------------------------------------------||
||----------------------------------------------------------------||
||------------------------------------------------------------3---||
||-0-0-0-0-1p0-0-0-3p0-0-0-3h5p3-[x3]-2-2-2-2-3p2-2-2-5p2-2-2-1---||

[RIFF 1 (x8)]

[Riff 6 (x4)]                                /natural harmonic\
||-------------------------|-----------------------------------||
||-------------------------|-------------------^---------------||
||-------------------------|------------------[3].....---------||
||-------------------------|-----------------------------------||
||-------------------------|-----------------------------------||
||-----6-------4--3--4--3--|-----6-------4--3------------------||
||-2-2---2-2-5-2--1--2--1--|-2-2---2-2-5-2--1------------------||
   . .   . .   .  .  .  .    . .   . .   .  .

                         [Riff 7 (x8)]
-----------------------||---------------------------||
-----------------------||---------------------------||
------[3].....---------||---------------------------||
-----------------------||---------------------------||
-----------------------||-------333333-------333333-||
-4--3------------------||-4--3--222222-4--3--222222-||
-2--1------------------||-2--1---------2--1---------||
 .  .                     .  .         .  .

SUPPORT UNDERGROUND!!!!

END OF SONG

  Visit MetalTabs.com for more metal tablature

bottom separator

Contact Us | Privacy Policy | Disclaimer
Copyright © 2001-2014 MetalTabs.com. All Rights Reserved.