top separator

Home

Forum

What's New

Submit a Tab

FAQ

Links

Contact Us

Link to Us

MuSpy.com

MetalTabs.com logo

Bands

0-9

A

B

C

D

E

F

G

H

I

J

K

L

M

N

O

P

Q

R

S

T

U

V

W

X

Y

Z

Search

What

Where
 

Psycroptic - "The Labyrinth" Guitar Tab

Plain Text Version
More Psycroptic Tabs

Hits: 3449
Rated: 5.00 out of 5 (4 votes)
Updated: 2005-02-16 09:32:05

 

By:

Cloaca

sendpm.gif

email.gif

Important note
This tab is available online because we obtained explicit permission from Psycroptic or their label.


#----------------------------------PLEASE NOTE---------------------------------#
#This file is the author's own work and represents their interpretation of the #
#song. You may only use this file for private study, scholarship, or research. #
#Unless specified otherwise, this is NOT an official tab from the band members.#
#------------------------------------------------------------------------------#

  Visit MetalTabs.com for more metal tablature
  
Psycroptic - 'The Labyrinth'
The Isle Of Disenchantment (2001)
Self Released

Tabbed by Tim Snowsill (Tim_Snowsill@hotmail.com)
12/02/05

________________________________________________________________________________
Tab Rhythm is hardly perfect so listen to CD. Any comments or corrections can be
e-mailed to above address.

________________________________________________________________________________
Dropped C# Tuning (C# G# C# F# A# D#)


 Riff 1
   Gtr. 1                                       6x*
||-------------------------------------------------||
||------------------------------------------------.||
||-------------------------------------------------||
||-----7------------------------------------------.||
||---5-----8-7---4-5---1~~---5-8-0-8-7-0-4-5-0-7~--||
||-0-----0-----0-----0-----0-------------------7~--||
   *Last Two Times Heavily Muted, Slightly Faster*




 Riff 2
   Gtr. 1
||---------------------------------------------------------------|
||---------------------------------------------------------------|
||----------------------------------------------------------5555-|
||---------------7777----5555-------------------7777-------------|
||-0-555577778888----8888----7777-0-555577778888----88887777-----|
||-0------------------------------0------------------------------|

 Riff 2 (Cont.)
   Gtr. 1
 |-------------------------------------------------------------||
 |-------------------------------------------------------------||
 |-------------------------------------------------------------||
 |---------------7777----5555----------------------------------||
 |-0-555577778888----8888----7777-------------------------5--3-||
 |-0------------------------------888-777-555-777-555-333-5--3-||





 Riff 3
   Gtr. 1
||--------------------------------------------------------------------------|
||--------------------------------------------------------------------------|
||--------------------------------------------------------------------------|
||-------------------------555-------------------------------------55554~~~-|
||----0~-555---333---111------8887778887h8p75553333~~--555---333------------|
||-0000~-----0-----0-----0---------------------------0-----0-----0----------|

 Riff 3
   Gtr. 1
 |---------------------------||
 |---------------------------||
 |----------------88887~~~~--||
 |-4445557~~88887~-----------||
 |---------------------------||
 |---------------------------||


 Riff 2 1x

 Riff 3 1x




 Riff 4
   Gtr. 1                                          4x
||-------------------------|-------------------------||
||-------------------------|------------------------.||
||-------------------------|-------------------------||
||-------------------6p5p3-|---------------5-5\3-3--.||
||---------------3-5------6|-555555-5p3h5h6-6---5-5--||
||-555555-5p3h5h6-6-6------|-----------------------6-||





 Riff 5
   Gtr. 1
||---------------------------------------------------------------------------||
||---------------------------------------------------------------------------||
||---------------------------------------------------------------------------||
||---------------------------------------------------------------------------||
||-5-----3-5-6------6-0----1------5-----3-5-6------6-0----1------0~-Let-Ring-||
||-5-----3-5-6------6-0----1------5-----3-5-6------6-0----1------0~----------||





 Riff 6
   Gtr. 1                 4x                                             2x
||---------------------------|---------------------------------------------||
||--------------------------.|.-------------------------------------------.||
||---------------------------|---------------------------------------------||
||---(7)-7-10--9------------.|.-------------------------------------------.||
||-0-(5)-5--8--7--8-----5----|--0--------------------(0)-------------------||
||-0--------------8-----5----|--0--<---b-a-s-s--->---(0)--<---b-a-s-s--->--||





 Riff 7
   Gtr. 1                            4x
||--------------------------------------||
||-------------------------------------.||
||--------------------------------------||
||------------------3p2----------------.||
||-------------5p3h5---3--------8-/6\5--||
||-0~-0h3h60h5~---------5p0h3h5-8-------||



 Riff 6 (2nd Section Only) 2x


 Riff 7 4x




 Riff 8
   Gtr. 1                                      2x
||-----------------------------------------------|
||----------------------------------------------.|
||-----------------------------------------------|
||-----------------------5----------------------.|
||-0----------5--------3-3------0---555-333-222--|
||-0--0-3-6-0-5--0-3-5------0-3---0-555-333-222--|

 Riff 8 (Cont.)
   Gtr. 1                                      2x
 |-----------------------------------------------||
 |--------------F--A--S--T--E--R----------------.||
 |-----------------------------------------------||
 |-7~--------------------5~---------------------.||
 |-5~---------5~-------3-3~-----0---555-333-222--||
 |----0-3-6-0-5~-0-3-5------0-3---0-555-333-222--||




 Riff 9
   Gtr. 1                2x
||--------------------------|-------------------------------------------------||
||-------------------------.|-------------------------------------------------||
||--------------------------|-------------------------------------------------||
||-------------------------.|-------------------------------------------------||
||--------------------------|-5-----3-----5-----3-----5-----3-----5-----3-----||
||-5-4-4-3-2-0-5-4-4-3-2-0--|-5-4-4-3-2-0-5-4-4-3-2-0-5-4-4-3-2-0-5-4-4-3-2-0-||





 Riff 10
   Gtr. 1
||-------------------------------------------------|
||-------------------------------------------------|
||-------------------------------------------------|
||-----7-------------------------------------------|
||---5-----8-7---4-5---1~~---5-8-0-8-7-0-4-5-0-7~--|
||-0-----0-----0-----0-----0-------------------7~--|

 Riff 10 (Cont.)
   Gtr. 1
 |--------------------------------------------------||
 |--------------------------------------------------||
 |-------------------------------5-----------8------||
 |-----7-----------------------7---6-----6-9---9-6--||
 |---5-----8-7---4-5---1~~-5-8-------7-8------------||
 |-0-----0-----0-----0------------------------------||





 Riff 12
   Gtr. 1
||-------------------------------------------------------|
||-------------------------------------------------------|
||-------------------------------------------------------|
||---------5--------8-----4/5--2~------5~-----3~------6~-|
||-7~------3--3-----6-----2/3--0~------3~----5-------8---|
||-7~---------3---------------------------3h6-----6h9----|

 Riff 12 (Cont.)
   Gtr. 1
 |-----------------------------------------------------------------------------|
 |-----------------------------------------------------------------------------|
 |-----------------------------------------------------------------------------|
 |---------5--------8-----4/5--2~------5~-----3~-----6~-------9------------12~-|
 |-7~------3--3-----6-----2/3--0~------3~----5------8-------11-11/14-----14----|
 |-7~---------3---------------------------3h6----6h9----9h12--------12h15------|

 Riff 12 (Cont.)
   Gtr. 1
 |--------------------------------------------------------||
 |.------------------------------------------------------.||
 |--------------------------------------------------------||
 |.--------5--------8-----4/5--2~------5~-----3~------6~-.||
 |-7~------3--3-----6-----2/3--0~------3~----5-------8----||
 |-7~---------3---------------------------3h6-----6h9-----||





 Riff 13
   Gtr. 1                                        2x
||-------------------------------------------------||
||------------------------------------------------.||
||-------------------------------------------------||
||------------------------------------------------.||
||-5-----2-----5-----2-----5-----2-----5-----2-----||
||---3-2---3-5---3-2---3-5---3-2---3-5---3-2---3-5-||





 Riff 14
   Gtr. 1
||--------------------------------------------------|
||--------------------------------------------------|
||--------------------------------------------------|
||--------------------------------------------------|

||-5555--------2222--------5555--------2222---------|
||-----33332222----33335555----33332222----33335555-|

 Riff 14 (Cont.)
   Gtr. 1                                       3x
 |-------------------------------------------------||
 |------------------------------------------------.||
 |-------------------------------------------------||
 |------------------------------------------------.||
 |-5-----2-----5-----2-----5-----2-----5-----2-----||
 |---3-2---3-5---3-2---3-5---3-2---3-5---3-2---3-5-||





 Riff 15
   Gtr. 1
||--------------------------------------------------|
||-------------Play--Section--Twice-----------------|
||--------------------------------------------------|
||--------------------------------------------------|

||-5555--------2222--------5555--------2222---------|
||-----33332222----33335555----33332222----33335555-|

 Riff 15 (Cont.)
   Gtr. 1
 |-------------------------------------------------||
 |-------------Play--Section--Twice----------------||
 |-------------------------------------------------||
 |-------------------------------------------------||
 |-5-----2-----5-----2-----5-----2-----5-----2-----||
 |---3-2---3-5---3-2---3-5---3-2---3-5---3-2---3-5-||





 Riff 16
   Gtr. 1
||------------------------------||
||------------------------------||
||------------------------------||
||------------------------------||
||-------------------------5--3-||
||-888-777-555-777-555-333-5--3-||



 Riff 3 1x


 Riff 2 1x


 Riff 3 1x


 Riff 4 4x


 Riff 5 2x




 Riff 17
   Gtr. 1
||-------------------------------------------------||
||-------------------------------------------------||
||-------------------------------------------------||
||-----------------------------------3--------3~---||
||-0-55551111----1111-0-55551111-----1--4--1--1~---||
||-0---------4444-----0---------4444----4--1-------||





 Riff 18
   Gtr. 1                                           2x
||----------------------------------------------------||
||---------------------------------------------------.||
||----------------------------------------------------||
||---------------------------------------------------.||
||-0-55551111----1111-0-55551111----1111--------1111--||
||-0---------4444-----0---------4444----44441111------||




 Riff 17 1x




 Riff 19
   Gtr. 1                              4x
||----------------------------------------||
||---------------------------------------.||
||----------------------------------------||
||-7--7--3-----3--7--7--3-----3--------3-.||
||-5--5--1--4--1--5--5--1--4--1--4--1--1--||
||----------4--------------4-----4--1-----||


End.

  Visit MetalTabs.com for more metal tablature

bottom separator

Contact Us | Privacy Policy | Disclaimer | Legal Notice
Copyright © 2001-2014 MetalTabs.com. All Rights Reserved.