top separator

Home

Forum

What's New

Submit a Tab

FAQ

Links

Contact Us

Link to Us

MuSpy.com

MetalTabs.com logo

Bands

0-9

A

B

C

D

E

F

G

H

I

J

K

L

M

N

O

P

Q

R

S

T

U

V

W

X

Y

Z

Search

What

Where
 

Exhumed - "Funeral Fuck" Guitar Tab

Plain Text Version
More Exhumed Tabs

Hits: 3764
Updated: 2005-02-16 09:20:06

 

By:

Father Death

sendpm.gif

email.gif

Important note
This tab is available online because we obtained explicit permission from Exhumed or their label.


#----------------------------------PLEASE NOTE---------------------------------#
#This file is the author's own work and represents their interpretation of the #
#song. You may only use this file for private study, scholarship, or research. #
#Unless specified otherwise, this is NOT an official tab from the band members.#
#------------------------------------------------------------------------------#

  Visit MetalTabs.com for more metal tablature
  
Band:   EXHUMED
Album:  Slaughtercult
Song:   Funeral Fuck

Transcribed by: Chris Humeniuk
Email:  father_death_666@hotmail.com

Tuning: 2.5 steps down (B)

Keys:
  "  - tremelo pick
 ___ - palm mute
  h  - hammer on
  p  - pull off
 / \ - slide


INTRO:

|------------------------------------------------|
|------------------------------------------------|
|------------------------------------------------|
|-2"----------2"----3--2--2"----------2"----2----|
|----0"-2"-------0"-3--2-----0"-2"-------0"-2----|
|----------1"-------1--0-----------1"-------0----|


VERSE:

|---------------------------------------------------------|
|---------------------------------------------------------|
|-------------------------------------------5-------------|
|-7------6------9------6------7------6-------------6------|
|---0000---0000---0000---0000-----------------------------|
|-------------------------------4444---4444---4444---4444-| 4x
    ____   ____   ____   ____   ____   ____   ____   ____


CHROUS:

|-------------------------------------------------------|
|-------------------------------------------------------|
|-------------------------------------------------------|
|-7h8-5h7-3h5-2h3---------------------3p2-4-2-4-5-2"----|
|-----------------0"----------5p4-6p5-------------------|
|-------------------------------------------------------| 4x
                  ___________


POST CHORUS a:

|-------------------------------------------------|
|-------------------------------------------------|
|-------------------------------------------------|
|-6"-------------------4"-6"----------------6"-5"-|
|-------5"-------0"-3"----------5"-------0"-------|
|----4"----2"----------------4"----2"-------------| 2x


INTRO


VERSE - 4x


CHORUS - 4x


POST CHORUS b:

|-------------------------------------------------
|-------------------------------------------------
|-------------------------------------------------
|-6"-------------------4"-6"----------------6"-5"-
|-------5"-------0"-3"----------5"-------0"-------
|----4"----2"----------------4"----2"-------------

 -------------------------------------------------|
 -------------------------------------------------|
 -------------------------------------------------|
 -6"-------------------4"-6"----------------5--4--|
 -------5"-------0"-3"----------5"-------0"-5--4--|
 ----4"----2"----------------4"----2"-------3--2--|


INTERLUDE:

|------------------------------|
|------------------------------|
|------------------------------|
|------------------------------|
|------------------------------|
|-5--3p2-3p2-4--3p2-3p2-6--3\2-| 4x

|------------------------------|
|------------------------------|
|------------------------------|
|------------------------------|
|-7--5\4-5\4-6--5\4-5\4-8--5\4-|
|-5--3\2-3\2-4--3\2-3\2-6--3\2-| 4x

(under solo):
|------------------------------|
|------------------------------|
|------------------------------|
|------------------------------|
|------------------------------|
|-3--1p0-1p0-2--1p0-1p0-4--1p0-| 4x

|------------------------------|
|------------------------------|
|------------------------------|
|------------------------------|
|-7--5\4-5\4-6--5\4-5\4-8--5\4-|
|-5--3\2-3\2-4--3\2-3\2-6--3\2-| 4x


TRANSITION:
(Gtr 1)
|---------------------------------------------------------|
|---------------------------------------------------------|
|---------------------------------------------------------|
|-7-----------------------------6-------------------------|
|-7-----------------------------6-------------------------|
|-5-----------------------------4-------------------------|

(Gtr 2)
|---------------------------------------------------------|
|---------------------------------------------------------|
|-------------------------------------------5-------------|
|-7------6------9------6------7------6-------------6------|
|---0000---0000---0000---0000-----------------------------|
|-------------------------------4444---4444---4444---4444-| 2x
    ____   ____   ____   ____   ____   ____   ____   ____


VERSE - 4x


CHORUS - 4x


POST CHORUS a - 2x


INTRO

fin

  Visit MetalTabs.com for more metal tablature

bottom separator

Contact Us | Privacy Policy | Disclaimer | Legal Notice
Copyright © 2001-2014 MetalTabs.com. All Rights Reserved.