top separator

Home

Forum

What's New

Submit a Tab

FAQ

Links

Contact Us

Link to Us

MuSpy.com

MetalTabs.com logo

Bands

0-9

A

B

C

D

E

F

G

H

I

J

K

L

M

N

O

P

Q

R

S

T

U

V

W

X

Y

Z

Search

What

Where
 

Mindsnare (AU) - "The Gallows In Disguise" Guitar Tab

Plain Text Version
More Mindsnare (AU) Tabs

Hits: 1674
Updated: 2005-02-16 08:58:44

 

By:

Meesh

sendpm.gif

email.gif

Important note
This tab is available online because we obtained explicit permission from Mindsnare (AU) or their label.


#----------------------------------PLEASE NOTE---------------------------------#
#This file is the author's own work and represents their interpretation of the #
#song. You may only use this file for private study, scholarship, or research. #
#Unless specified otherwise, this is NOT an official tab from the band members.#
#------------------------------------------------------------------------------#

  Visit MetalTabs.com for more metal tablature
  
Band:  Mindsnare.
Album: Hanged,choked,wrist's slit.
Song:  The Gallows in Disguise.

Copyright (c) Trial and Error 2001.

Transcribed By: Mischa Antohe
Email:          Demon_meesh@hotmail.com


-  = palm mute           /  = slide up to
\  = slide down to       b  =   bend
h  = hammer on
p  = pull off
ah = artificial harmonic


Tunning Eb Ab Db Gb Bb Eb

Riff A - 0.00
|-------------------------------------------------------------------|
|-------------------------------------------------------------------|
|----------------------------10-10----------------------------------|
|-2-----------6-5-3-2--------9--9--2----------6-5-3-2-3-5-6-5-3-----|x4
|-2--22222222-6-5-3-2-222222-7--7--2-22222222-6-5-3-2-3-5-6-5-3-----|
|-0--00000000-4-3-1-0-000000-------0-00000000-4-3-1-0-1-3-4-3-1-----|
     --------         ------         --------
Riff B - 0.20
|-------------------------------------------------------------------|
|-------------------------------------------------------------------|
|-------------------------------------------------------------------|
|-2222-3333-2222-653------------------------------------------------|x4
|-2222-3333-2222-653------------------------------------------------|
|-0000-1111-0000-431------------------------------------------------|

Riff C - 0.30
|-------------------------------------------------------------------|
|-------------------------------------------------------------------|
|------------------------------5ahb---------------------------------|
|-2222222233333333222222223333--------------------------------------|x2
|-------------------------------------------------------------------|
|-------------------------------------------------------------------|
  ----------------------------

0.35 - repeat Riff B x2

Riff D - 0.41
|-------------------------------------------------------------------|
|-------------------------------------------------------------------|
|-------------------------------------------------------------------|
|-------------------------------------------------------------------|
|---2--2---3333----22225555----2--2---3333----22225555----2--2------|
|-00-00-00-----5555----------00-00-00-----5555----------00-00-00----|
  -- -- -- ----------------  -- -- -- ----------------  -- -- --
|-------------------------------------------------------------------|
|-------------------------------------------------------------------|
|-------------------------------------------------------------------|
|-------------------------------------------------------------------|x2
|-3333----22225555----3--3--3---3h5p3-2-----------------------------|
|-----5555----------00-00-00-00-------------------------------------|
  ----------------  -- -- -- --

1.00 - repeat Riff A x3

1.15 - repeat Riff B x4

1.25 - repeat Riff C x2

1.30 - repeat Riff B x2

1.35 - repeat Riff D x2

Riff E - 1.55
|-------------------------------------------------------------------|
|-------------------------------------------------------------------|
|-------------9/10-10/12-----------------------------9/10-10/12-----|
|-5-2----3-33------------5-2----3-33-653-5-2----3-33----------------|
|-5-2-22-3-33-7/8--8/-10-5-2-22-3-33-653-5-2-22-3-33-7/8--8-/10-----|
|-3-0-00-1-11------------3-0-00-1-11-431-3-0-00-1-11----------------|
      --                     --      ---     --
|-------------------------------------------------------------------|
|-------------------------------------------------------------------|
|-------------------------------------------------------------------|
|-5-2----3-33-653-2-------------------------------------------------|
|-5-2-22-3-33-653-2-------------------------------------------------|
|-3-0-00-1-11-431-0-------------------------------------------------|
      --      ---

Riff F - 2.12
|-------------------------------------------------------------------|
|-------------------------------------------------------------------|
|----------------------999-8888-------------------------------------|
|-2------2------2------999-8888-------------------------------------|X2
|-2-2222-2-2222-2-2222-777-6666-------------------------------------|
|-0-0000-0-0000-0-0000----------------------------------------------|
    ----   ----   ----
Riff G - 2.19
|-------------------------------------------------------------------|
|-9----9----9----10---10-10---10------------------------------------|
|-8----8----8----9----9--9----9-------------------------------------|
|-6----6----6----7----7--7----7-------------------------------------|X2
|-------------------------------------------------------------------|
|--0000-0000-0000-0000----0000--------------------------------------|
   ---- ---- ---- ----    ----

2.25 repeat Riff F x2

2.32 repeat Riff G x2

2.38 repeat Riff F x2

2.44 repeat Riff G x2

2.50 repeat Riff F x2

2.56 repeat Riff G x2

3.02 repeat Riff F x2

3.08 repeat Riff G x2


Riff H(clean) - 3.26
|--------------------8--8--8--5--5----------------------------------|
|-5-5555555-6--6--6--13-13-13-10-10-33333333-8--8--8--6--6--6--5-5--|
|---9999999-10-10-10----------------77777777-12-12-12-10-10-10-9-9--|
|-------------------------------------------------------------------|x4
|-------------------------------------------------------------------|
|-------------------------------------------------------------------|

Outro
4.02 Guitar 1 repeat Riff E x6

4.16 2nd guitar plays Riff H(distorted)x2 while Riff E is repeating.

4.44 2nd guitar comes in again and plays Riff H x4 while Riff E is still
repeating.

End.

Listen to the song to get the exact rythym.

  Visit MetalTabs.com for more metal tablature

bottom separator

Contact Us | Privacy Policy | Disclaimer | Legal Notice
Copyright © 2001-2014 MetalTabs.com. All Rights Reserved.