top separator

Home

Forum

What's New

Submit a Tab

FAQ

Links

Contact Us

Link to Us

MetalTabs.com logo

Bands

0-9

A

B

C

D

E

F

G

H

I

J

K

L

M

N

O

P

Q

R

S

T

U

V

W

X

Y

Z

Search

What

Where
 

Putrid Pile - "Drenched In Gasoline" Guitar Tab

Plain Text Version
More Putrid Pile Tabs

Hits: 5136
Rated: 5.00 out of 5 (1 vote)
Updated: 2005-02-16 08:51:49

 

By:

The Doctor

sendpm.gif

email.gif

Important note
This tab is available online because we obtained explicit permission from Putrid Pile or their label.


#----------------------------------PLEASE NOTE---------------------------------#
#This file is the author's own work and represents their interpretation of the #
#song. You may only use this file for private study, scholarship, or research. #
#Unless specified otherwise, this is NOT an official tab from the band members.#
#------------------------------------------------------------------------------#

  Visit MetalTabs.com for more metal tablature
  
Song: Drenched in Gasoline
Album: Collection of Butchery
Bands: Putrid Pile
Tabbed by: Mennno Roymans, the doctor, mennodeman@hotmail.com

C#||----------------------------------|---------------------------------|
G#||----------------------------------|---------------------------------|
E ||----------------------------------|---------------------------------|
B ||----------------------------------|---------------------------------|
F#||----------4-4-3-3---------5-5-4-4-|----------4-4-3-3---------5-4-5--|
C#||--3-3-2-2---------3-3-2-2---------|--3-3-2-2---------3-3-2-2--------|



----------------------------------|----------------------------------|
----------------------------------|----------------------------------|
----------------------------------|----------------------------------|
----------------------------------|----------------------------------|
----------4-4-3-3---------5-5-4-4-|----------4-4-3-3---------5-4-5-5-|
--3-3-2-2---------3-3-2-2---------|--3-3-2-2---------3-3-2-2---------|



----------------------------------|----------------------------------|
----------------------------------|----------------------------------|
----------------------------------|----------------------------------|
----------------------------------|----------------------------------|
----------4-4-3-3---------5-5-4-4-|----------4-4-3-3---------5-4-5-5-|
--3-3-2-2---------3-3-2-2---------|--3-3-2-2---------3-3-2-2---------|



-----------------------|-----------------------|
-----------------------|-----------------------|
-----------------------|-----------------------|
-----------------------|-----------------------|
--5----4----7r---7--4--|--5----4----7r---7--4--|
--3----2----5r---5--2--|--3----2----5r---5--2--|



----------------------------------|----------------------------------|
----------------------------------|----------------------------------|
----------------------------------|----------------------------------|
----------------------------------|----------------------------------|
----------4-4-3-3---------5-5-4-4-|----------4-4-3-3---------5-4-5-5-|
--3-3-2-2---------3-3-2-2---------|--3-3-2-2---------3-3-2-2---------|



------------------------------------------|
------------------------------------------|
------------------------------------------|
----------5----------------------------4--|
--2----2--3--3--2--2--2--2----5/-4/-5--2--|
--0----0-----1--0--0--0--0----3/-2/-3-----|



------------------------------------------------|
------------------------------------------------|
------------------------------------------------|
----------5-------------------------------------|
--2----2--3--3--2--2--2--2----2--2--6--5--6--5--|
--0----0-----1--0--0--0--0----0--0--4--3--4--3--|



------------------------------------------------|
------------------------------------------------|
------------------------------------------------|
----------5----------------------------------4--|
--2----2--3--3--2--2--2--2----2--2--5/-4/-5--2--|
--0----0-----1--0--0--0--0----0--0--3/-2/-3-----|



------------------------------------------------|
------------------------------------------------|
------------------------------------------------|
----------5-------------------------------------|
--2----2--3--3--2--2--2--2----2--2--6--5--6--5--|
--0----0-----1--0--0--0--0----0--0--4--3--4--3--|



------------------------------------------------|
------------------------------------------------|
------------------------------------------------|
----------5----------------------------------4--|
--2----2--3--3--2--2--2--2----2--2--5/-4/-5--2--|
--0----0-----1--0--0--0--0----0--0--3/-2/-3-----|



------------------------------------------------|
------------------------------------------------|
------------------------------------------------|
----------5-------------------------------------|
--2----2--3--3--2--2--2--2----2--2--6--5--6--5--|
--0----0-----1--0--0--0--0----0--0--4--3--4--3--|



------------------------------------------------|
------------------------------------------------|
------------------------------------------------|
----------5----------------------------------4--|
--2----2--3--3--2--2--2--2----2--2--5/-4/-5--2--|
--0----0-----1--0--0--0--0----0--0--3/-2/-3-----|



------------------------------------------------|
------------------------------------------------|
------------------------------------------------|
----------5-------------------------------------|
--2----2--3--3--2--2--2--2----2--2--6--5--6--5--|
--0----0-----1--0--0--0--0----0--0--4--3--4--3--|



------------------------------------------------|
------------------------------------------------|
------------------------------------------------|
----------5----------------------------------4--|
--2----2--3--3--2--2--2--2----2--2--5/-4/-5--2--|
--0----0-----1--0--0--0--0----0--0--3/-2/-3-----|



--------------------------------------------|
--------------------------------------------|
--------------------------------------------|
--------------------------------------------|
--2----2--2--3--------2----2--2--5--4--3----|
--0----0--0--1--------0----0--0--3--2--1----|



------------------------------------------------|
------------------------------------------------|
------------------------------------------------|
------------------------------------------------|
--2----2--2--3--2--2--2--2----2--2--6--5--6--5--|
--0----0--0--1--0--0--0--0----0--0--4--3--4--3--|



------------------------------------------------|
------------------------------------------------|
------------------------------------------------|
---------------------------------------------4--|
--2----2--2--3--2--2--2--2----2--2--5/-4/-5--2--|
--0----0--0--1--0--0--0--0----0--0--3/-2/-3-----|



------------------------------------------------|
------------------------------------------------|
------------------------------------------------|
------------------------------------------------|
--2----2--2--3--2--2--2--2----2--2--6--5--6--5--|
--0----0--0--1--0--0--0--0----0--0--4--3--4--3--|



------------------------------------------------|
------------------------------------------------|
------------------------------------------------|
---------------------------------------------4--|
--2----2--2--3--2--2--2--2----2--2--5/-4/-5--2--|
--0----0--0--1--0--0--0--0----0--0--3/-2/-3-----|



-------------------------------------|-----------------------------|
-------------------------------------|-----------------------------|
-------------------------------------|-----------------------------|
-------------------4-----------------|-----------------------------|
--2----------------2------------4----|--5----4----3----------------|
--0-----------------------------2----|--3----2----1----------------|



-------------------------------------|-----------------------------|
-------------------------------------|-----------------------------|
-------------------------------------|-----------------------------|
-------------------4-----------------|-----------------------------|
--2----------------2------------4----|--5----4----3----------------|
--0-----------------------------2----|--3----2----1----------------|



-----------------------------------------------|
-----------------------------------------------|
-----------------------------------------------|
--------------5----------------------3---------|
--4--5--4--5--3--5--4--5--4--3--2----1----3----|
--2--3--2--3-----3--2--3--2--1--0---------1----|



----------------------------------------------|
----------------------------------------------|
----------------------------------------------|
--------------5----------------------3--------|
--4--5--4--5--3--5--4--5--4--3--2----1--------|
--2--3--2--3-----3--2--3--2--1--0-------------|



-----------------------------------------------|
-----------------------------------------------|
-----------------------------------------------|
--------------5----------------------3---------|
--4--5--4--5--3--5--4--5--4--3--2----1----3----|
--2--3--2--3-----3--2--3--2--1--0---------1----|



----------------------------------------------|
----------------------------------------------|
----------------------------------------------|
--------------5----------------------3--------|
--4--5--4--5--3--5--4--5--4--3--2----1--------|
--2--3--2--3-----3--2--3--2--1--0-------------|



-------------------------------------|-----------------------------|
-------------------------------------|-----------------------------|
-------------------------------------|-----------------------------|
-------------------4-----------------|-----------------------------|
--2----------------2------------4----|--5----4----3----------------|
--0-----------------------------2----|--3----2----1----------------|



-------------------------------------|-----------------------------|
-------------------------------------|-----------------------------|
-------------------------------------|-----------------------------|
-------------------4-----------------|-----------------------------|
--2----------------2------------4----|--5----4----3----------------|
--0-----------------------------2----|--3----2----1----------------|



-----------------------------------------------|
-----------------------------------------------|
-----------------------------------------------|
--------------5----------------------3---------|
--4--5--4--5--3--5--4--5--4--3--2----1----3----|
--2--3--2--3-----3--2--3--2--1--0---------1----|



----------------------------------------------|
----------------------------------------------|
----------------------------------------------|
--------------5----------------------3--------|
--4--5--4--5--3--5--4--5--4--3--2----1--------|
--2--3--2--3-----3--2--3--2--1--0-------------|



-----------------------------------------------|
-----------------------------------------------|
-----------------------------------------------|
--------------5----------------------3---------|
--4--5--4--5--3--5--4--5--4--3--2----1----3----|
--2--3--2--3-----3--2--3--2--1--0---------1----|



----------------------------------------------|------------------------|
----------------------------------------------|------------------------|
----------------------------------------------|------------------------|
--------------5----------------------3--------|------------------------|
--4--5--4--5--3--5--4--5--4--3--2----1--------|--2--2----2--2--2----2--|
--2--3--2--3-----3--2--3--2--1--0-------------|--0--0----0--0--0----0--|



--------------------------------|------------------------|
--------------------------------|------------------------|
--------------------------------|------------------------|
-----------------4--------------|------------------------|
--5----4----5----2----4----5----|--2--2----2--2--2----2--|
--3----2----3---------2----3----|--0--0----0--0--0----0--|



------------------------------|------------------------|
------------------------------|------------------------|
------------------------------|------------------------|
------------5----4------------|------------------------|
--4----5----3----2------------|--2--2----2--2--2----2--|
--2----3----------------------|--0--0----0--0--0----0--|



--------------------------------|------------------------|
--------------------------------|------------------------|
--------------------------------|------------------------|
-----------------4--------------|------------------------|
--5----4----5----2----4----5----|--2--2----2--2--2----2--|
--3----2----3---------2----3----|--0--0----0--0--0----0--|



------------------------------|------------------------|
------------------------------|------------------------|
------------------------------|------------------------|
------------5----4------------|------------------------|
--4----5----3----2------------|--2--2----2--2--2----2--|
--2----3----------------------|--0--0----0--0--0----0--|



--------------------------------|------------------------|
--------------------------------|------------------------|
--------------------------------|------------------------|
-----------------4--------------|------------------------|
--5----4----5----2----4----5----|--2--2----2--2--2----2--|
--3----2----3---------2----3----|--0--0----0--0--0----0--|



------------------------------|------------------------|
------------------------------|------------------------|
------------------------------|------------------------|
------------5----4------------|------------------------|
--4----5----3----2------------|--2--2----2--2--2----2--|
--2----3----------------------|--0--0----0--0--0----0--|



--------------------------------|------------------------|
--------------------------------|------------------------|
--------------------------------|------------------------|
-----------------4--------------|------------------------|
--5----4----5----2----4----5----|--2--2----2--2--2----2--|
--3----2----3---------2----3----|--0--0----0--0--0----0--|



------------------------------|----------------------------------|
------------------------------|----------------------------------|
------------------------------|----------------------------------|
------------5----4------------|----------------------------------|
--4----5----3----2------------|--2-2-2-2-2-2-2-2-3-3-2-2-0-0-3-3-|
--2----3----------------------|----------------------------------|



----------------------------------|----------------------------------|
----------------------------------|----------------------------------|
----------------------------------|----------------------------------|
--------------------------0-0-0-0-|----------------------------------|
--2-2-2-2-2-2-2-2-3-3-2-2---------|--2-2-2-2-2-2-2-2-3-3-2-2-0-0-3-3-|
----------------------------------|----------------------------------|



----------------------------------|------------------------|
----------------------------------|------------------------|
----------------------------------|------------------------|
----------------------------------|------------------------|
--2-2-2-2-2-2-2-2-3-3-2-2---------|--2--2----2--2--2----2--|
--------------------------3-3-2-2-|--0--0----0--0--0----0--|



--------------------------------|------------------------|
--------------------------------|------------------------|
--------------------------------|------------------------|
-----------------4--------------|------------------------|
--5----4----5----2----4----5----|--2--2----2--2--2----2--|
--3----2----3---------2----3----|--0--0----0--0--0----0--|



------------------------------|------------------------|
------------------------------|------------------------|
------------------------------|------------------------|
------------5----4------------|------------------------|
--4----5----3----2------------|--2--2----2--2--2----2--|
--2----3----------------------|--0--0----0--0--0----0--|



--------------------------------|------------------------|
--------------------------------|------------------------|
--------------------------------|------------------------|
-----------------4--------------|------------------------|
--5----4----5----2----4----5----|--2--2----2--2--2----2--|
--3----2----3---------2----3----|--0--0----0--0--0----0--|



------------------------------|------------------------|
------------------------------|------------------------|
------------------------------|------------------------|
------------5----4------------|------------------------|
--4----5----3----2------------|--2--2----2--2--2----2--|
--2----3----------------------|--0--0----0--0--0----0--|



--------------------------------|------------------------|
--------------------------------|------------------------|
--------------------------------|------------------------|
-----------------4--------------|------------------------|
--5----4----5----2----4----5----|--2--2----2--2--2----2--|
--3----2----3---------2----3----|--0--0----0--0--0----0--|



------------------------------|------------------------|
------------------------------|------------------------|
------------------------------|------------------------|
------------5----4------------|------------------------|
--4----5----3----2------------|--2--2----2--2--2----2--|
--2----3----------------------|--0--0----0--0--0----0--|



--------------------------------|------------------------|
--------------------------------|------------------------|
--------------------------------|------------------------|
-----------------4--------------|------------------------|
--5----4----5----2----4----5----|--2--2----2--2--2----2--|
--3----2----3---------2----3----|--0--0----0--0--0----0--|



------------------------------|----------------------------------|
------------------------------|----------------------------------|
------------------------------|----------------------------------|
------------5----4------------|----------------------------------|
--4----5----3----2------------|--2-2-2-2-2-2-2-2-3-3-2-2-0-0-3-3-|
--2----3----------------------|----------------------------------|



----------------------------------|----------------------------------|
----------------------------------|----------------------------------|
----------------------------------|----------------------------------|
--------------------------0-0-0-0-|----------------------------------|
--2-2-2-2-2-2-2-2-3-3-2-2---------|--2-2-2-2-2-2-2-2-3-3-2-2-0-0-3-3-|
----------------------------------|----------------------------------|



----------------------------------|----------------------------------|
----------------------------------|----------------------------------|
----------------------------------|----------------------------------|
----------------------------------|----------------------------------|
--2-2-2-2-2-2-2-2-3-3-2-2---------|--2-2-2-2-2-2-2-2-3-3-2-2-0-0-3-3-|
--------------------------2-2-3-3-|----------------------------------|



----------------------------------|----------------------------------|
----------------------------------|----------------------------------|
----------------------------------|----------------------------------|
--------------------------0-0-0-0-|----------------------------------|
--2-2-2-2-2-2-2-2-3-3-2-2---------|--2-2-2-2-2-2-2-2-3-3-2-2-0-0-3-3-|
----------------------------------|----------------------------------|



------------------------------||
------------------------------||
------------------------------||
------------------5--4--------||
--2-2-2-2-2-2-2-2-3--2--4--5--||
------------------------2--3--||


have fun with it.
mennodeman@hotmail.com

  Visit MetalTabs.com for more metal tablature

bottom separator

Contact Us | Privacy Policy | Disclaimer | Legal Notice
Copyright © 2001-2014 MetalTabs.com. All Rights Reserved.