top separator

Home

Forum

What's New

Submit a Tab

FAQ

Links

Contact Us

Link to Us

MetalTabs.com logo

Bands

0-9

A

B

C

D

E

F

G

H

I

J

K

L

M

N

O

P

Q

R

S

T

U

V

W

X

Y

Z

Search

What

Where
 

Coroner - "No Need to be Human" Guitar Tab

Plain Text Version
More Coroner Tabs

Hits: 4383
Rated: 3.67 out of 5 (3 votes)
Updated: 2006-01-28 20:01:44

 

By:

MetalThrashingMad

sendpm.gif

email.gif

Important note
We did our best to reach Coroner and ask for their permission to publish this tab. Unfortunately they did not respond to our requests or we could not find a way to contact them. This tab is available online until Coroner tells us to take it down.


#----------------------------------PLEASE NOTE---------------------------------#
#This file is the author's own work and represents their interpretation of the #
#song. You may only use this file for private study, scholarship, or research. #
#Unless specified otherwise, this is NOT an official tab from the band members.#
#------------------------------------------------------------------------------#

  Visit MetalTabs.com for more metal tablature
  
NO NEED TO BE HUMAN
                             As recorded by Coroner
                       (From the 1989 Album NO MORE COLOR)
                        Copyright (c) 1989 Noise Records

Arranged by Coroner
Transcribed By: Steve - MetalThrashingMad
Email: Thrasher502@hotmail.com
Version 1.3 - January 26, 2006


Gtr I (E A D G B E) - 'Guitar 1'
Gtr II (E A D G B E) - 'Guitar 2'
Gtr III (E A D G B E) - 'Untitled'


 0:00
  Q=238
  N.C.
 6/4
  Gtrs I, II
|-------------|---------------|
|-------------|---------------|
|-------------|---------------|
|-------------|-------8----7--|
|-------------|-------6----5--|
|-------------|---------------|


       PM------------|    PM------------|      PM------------|
                                                                         4x
||----------------------------------------|------------------------------||
||o---------------------------------------|-----------------------------o||
||----------------------------------------|------------------------------||
||--2------------------2------------------|-2------------------8----7----||
||o-0--0-0-0-0-0-0-0-0-0--0-0-0-0-0-0-0-0-|-0--0-0-0-0-0-0-0-0-6----5---o||
||----------------------------------------|------------------------------||


   0:16
                                                      3x
||--------------------|-------------------------------||
||o-------------------|------------------------------o||
||--------------------|----10-10-10--10-10--10-10\----||
||--2--4--5--5S8---8--|----10-10-10--10-10--10-10-----||
||o-0--2--3--3S6---6--|-0----------------------------o||
||--------------------|-------------------------------||


|-------------------|----------------------||
|-------------------|----------------------||
|-------------------|----10-10-10----------||
|-2--4--5--5S8---8--|----10-10-10--8----7--||
|-0--2--3--3S6---6--|-0------------6----5--||
|-------------------|----------------------||


   0:28
    N.C.
       PM------------|    PM------------|      PM------------|
                                                                         4x
||----------------------------------------|------------------------------||
||o---------------------------------------|-----------------------------o||
||----------------------------------------|------------------------------||
||--2------------------2------------------|-2------------------8----7----||
||o-0--0-0-0-0-0-0-0-0-0--0-0-0-0-0-0-0-0-|-0--0-0-0-0-0-0-0-0-6----5---o||
||----------------------------------------|------------------------------||


   0:40
    N.C.
                                                               4/4
       PM------------|       PM----|         PM----|
                                                                             4x
||-----------------------------------|------------------------|--------------||
||o----------------------------------|------------------------|-------------o||
||-----------------------------------|------------------------|--------------||
||--8------------------8--8----------|-9--9----------8--8--9--|-9--8--8--0---||
||o-6--6-6-6-6-6-6-6-6-6--6--6-6-6-6-|-6--6--6-6-6-6-6--6--6--|-6--6--6-----o||
||-----------------------------------|------------------------|--------------||


   0:56
    N.C.
   6/4
       PM------------|    PM------------|      PM------------|
                                                                        4x
||----------------------------------------|-----------------------------||
||o---------------------------------------|----------------------------o||
||----------------------------------------|-----------------------------||
||--2------------------2------------------|-2------------------8----7---||
||o-0--0-0-0-0-0-0-0-0-0--0-0-0-0-0-0-0-0-|-0--0-0-0-0-0-0-0-0-6----5--o||
||----------------------------------------|-----------------------------||


   1:09
    N.C.
                                                               4/4
       PM------------|       PM----|         PM----|
                                                                             4x
||-----------------------------------|------------------------|--------------||
||o----------------------------------|------------------------|-------------o||
||-----------------------------------|------------------------|--------------||
||--8------------------8--8----------|-9--9----------8--8--9--|-9--8--8--0---||
||o-6--6-6-6-6-6-6-6-6-6--6--6-6-6-6-|-6--6--6-6-6-6-6--6--6--|-6--6--6-----o||
||-----------------------------------|------------------------|--------------||


   1:24
    $
    N.C.
   6/4
||------------------------|-----------------------
||o-----------------------|-----------------------
||------------------------|-----------------------
||------------------------|-----------------------
||o-3------------------3--|-6------------------6--
||--1--1-1-1-1-1-1-2-0----|-4--4-4-4-4-4-4-5-0----


                                                          D.S.
                                                   3/4
|-----------------------|------------------------||------------||
|-----------------------|-----------------------o||------------||
|-----------------------|------------------------||------------||
|-----------------------|------------------------||------------||
|-3------------------3--|-2------------------3--o||---------3--||
|-1--1-1-1-1-1-1-2-0----|-0--0-0-0-0-0-0-1-0-----||-3-0-1-0----||


   1:49
    Q=145
    N.C.
   6/8
      PM----|    PM----|     PM----|
||-----------------------|-----------------------|
||o----------------------|-----------------------|
||-----------------------|-----------------------|
||--9---------10---------|-9---------------------|
||o-7-7-7-7-7--8-8-8-8-8-|-7-7-7-7-7-6-7-9-6-7-8-|
||-----------------------|-----------------------|


    PM----|    PM----|
|----------------------|--------------------------||
|----------------------|-------------------------o||
|----------------------|-------------------9tr10--||
|-9---------10---------|-------------9tr10--------||
|-7-7-7-7-7--8-8-8-8-8-|-6-7-9-6-7-8-------------o||
|----------------------|--------------------------||


 2:00
  N.C.
    PM----------------|     PM----|           PM--------------|
|-----------------------|-----------------|-----------------------|
|-----------------------|-----------------|-----------------------|
|-----------------------|-----------------|-----------------------|
|-8---------------------|-8---------8-----|-5---------------------|
|-6-0-0-0-0-0-0-0-0-0-0-|-6-0-0-0-0-6-0-4-|-3---------------------|
|-----------------------|-----------------|---2-2-2-2-2-2-2-2-2-2-|


    PM--|             PM----------------|     PM----|
|-----------------|-----------------------|-----------------|
|-----------------|-----------------------|-----------------|
|-----------------|-----------------------|-----------------|
|-5---------5-----|-8---------------------|-8---------8-----|
|-3---------3-0-2-|-6-0-0-0-0-0-0-0-0-0-0-|-6-0-0-0-0-6-0-6-|
|---2-2-2-2-------|-----------------------|-----------------|


|------------------------|----------------------||
|------------------------|----------------------||
|------------------------|----------------------||
|-11---------------------|-11-------------------||
|--9---------------------|--9---------9-9-7-8-9-||
|----8-8-8-8-8-8-8-8-8-8-|----8-8-8-8-----------||


   2:10
    N.C.
      PM----|    PM----|     PM----|
||-----------------------|-----------------------|
||o----------------------|-----------------------|
||-----------------------|-----------------------|
||--9---------10---------|-9---------------------|
||o-7-7-7-7-7--8-8-8-8-8-|-7-7-7-7-7-6-7-9-6-7-8-|
||-----------------------|-----------------------|


    PM----|    PM----|
|----------------------|--------------------------||
|----------------------|-------------------------o||
|----------------------|-------------------9tr10--||
|-9---------10---------|-------------9tr10--------||
|-7-7-7-7-7--8-8-8-8-8-|-6-7-9-6-7-8-------------o||
|----------------------|--------------------------||


   2:21
    N.C.
      PM----------------|     PM----|           PM--------------|
||------------------------|-----------------|-----------------------|
||o-----------------------|-----------------|-----------------------|
||------------------------|-----------------|-----------------------|
||--8---------------------|-8---------8-----|-5---------------------|
||o-6-0-0-0-0-0-0-0-0-0-0-|-6-0-0-0-0-6-0-4-|-3---------------------|
||------------------------|-----------------|---2-2-2-2-2-2-2-2-2-2-|


    PM--|             PM----------------|     PM----|
|-----------------|-----------------------|-----------------|
|-----------------|-----------------------|-----------------|
|-----------------|-----------------------|-----------------|
|-5---------5-----|-8---------------------|-8---------8-----|
|-3---------3-0-2-|-6-0-0-0-0-0-0-0-0-0-0-|-6-0-0-0-0-6-0-6-|
|---2-2-2-2-------|-----------------------|-----------------|


|------------------------|-----------------------||
|------------------------|----------------------o||
|------------------------|-----------------------||
|-11---------------------|-11--------------------||
|--9---------------------|--9---------9-9-7-8-9-o||
|----8-8-8-8-8-8-8-8-8-8-|----8-8-8-8------------||


   2:42
    Q=238
    $$
    N.C.
   6/4
||------------------------|-----------------------
||o-----------------------|-----------------------
||------------------------|-----------------------
||------------------------|-----------------------
||o-3------------------3--|-6------------------6--
||--1--1-1-1-1-1-1-2-0----|-4--4-4-4-4-4-4-5-0----


                                                        D.S.S.
                                                   3/4
|-----------------------|------------------------||------------||
|-----------------------|-----------------------o||------------||
|-----------------------|------------------------||------------||
|-----------------------|------------------------||------------||
|-3------------------3--|-2------------------3--o||---------3--||
|-1--1-1-1-1-1-1-2-0----|-0--0-0-0-0-0-0-1-0-----||-3-0-1-0----||


   3:05
    Q=130
    E5
   6/8
||--------------|---------------|---------------|----------------||
||o-------------|---------------|---------------|---------------o||
||--------------|---------------|---------------|----------------||
||--2-----------|-(2)-----------|-(2)-----------|-(2)------------||
||o-2-----------|-(2)-----------|-(2)-----------|-(2)-----------o||
||--0-----------|-(0)-----------|-(0)-----------|-(0)------------||
|
|   Gtr III
||--------0-----|---------0-----|---------0-----|---------0------||
||o---------0---|-----------0---|-----------0---|-----------0---o||
||------------0-|-------------0-|-------------0-|-------------0--||
||------2-------|-------2-------|-------2-------|-------2--------||
||o-2-2---------|--2--2---------|--2--2---------|--2--2---------o||
||--0-----------|--0------------|--0------------|--0-------------||


  N.C.
    PM------|     PM------|     PM------|     PM|   PM
|-------------|-------------|-------------|--------------|
|-------------|-------------|-------------|--------------|
|-------------|-------------|-------------|--------------|
|-8-----------|-8-----------|-7-----------|-8-----7---5--|
|-6-6-6-6-6-6-|-6-6-6-6-6-6-|-5-0-0-0-0-0-|-6-6-6-5-0-3--|
|-------------|-------------|-------------|--------------|


    PM------|     PM------|     PM------|     PM|   PM
|-------------|-------------|-------------|--------------||
|-------------|-------------|-------------|--------------||
|-------------|-------------|-------------|--------------||
|-7-----------|-8-----------|-7-----------|-8-----7---5--||
|-5-0-0-0-0-0-|-6-6-6-6-6-6-|-5-0-0-0-0-0-|-6-6-6-5-0-3--||
|-------------|-------------|-------------|--------------||


   3:30
    Q=238
    N.C.
   6/4                                                         4/4
       PM------------|       PM----|         PM----|
                                                                              4x
||-----------------------------------|------------------------|---------------||
||o----------------------------------|------------------------|--------------o||
||-----------------------------------|------------------------|---------------||
||--8------------------8--8----------|-9--9----------8--8--9--|-9--8--8--0----||
||o-6--6-6-6-6-6-6-6-6-6--6--6-6-6-6-|-6--6--6-6-6-6-6--6--6--|-6--6--6------o||
||-----------------------------------|------------------------|---------------||


   3:46
    N.C.
   6/4
                                                   4x
||------------------------|------------------------||
||o-----------------------|-----------------------o||
||------------------------|------------------------||
||------------------------|------------------------||
||o-6------------------6--|-8------------------8--o||
||--4--4-4-4-4-4-4-5-0----|-6--6-6-6-6-6-6-7-0-----||


   3:57
    N.C.
||------------------------|------------------------
||o-----------------------|------------------------
||------------------------|------------------------
||------------------------|------------------------
||o-3------------------3--|-6------------------6---
||--1--1-1-1-1-1-1-2-0----|-4--4-4-4-4-4-4-5-0-----


                                                   3/4
|-----------------------|------------------------||------------|
|-----------------------|-----------------------o||------------|
|-----------------------|------------------------||------------|
|-----------------------|------------------------||------------|
|-3------------------3--|-2------------------3--o||---------3--|
|-1--1-1-1-1-1-1-3-1----|-0--0-0-0-0-0-0-1-0-----||-3-0-1-0----|


   6/4
||------------------------|-----------------------|
||o-----------------------|-----------------------|
||------------------------|-----------------------|
||------------------------|-----------------------|
||o-3------------------3--|-6------------------6--|
||--1--1-1-1-1-1-1-3-1----|-4--4-4-4-4-4-4-6-4----|


                                                   3/4
|-----------------------|------------------------||------------||
|-----------------------|-----------------------o||------------||
|-----------------------|------------------------||------------||
|-----------------------|------------------------||------------||
|-3------------------3--|-2------------------3--o||---------3--||
|-1--1-1-1-1-1-1-2-0----|-0--0-0-0-0-0-0-1-0-----||-3-0-1-0----||


   4:21
    Q=145
    N.C.
   6/8
      PM----|    PM----|     PM----|
||-----------------------|-----------------------|
||o----------------------|-----------------------|
||-----------------------|-----------------------|
||--9---------10---------|-9---------------------|
||o-7-7-7-7-7--8-8-8-8-8-|-7-7-7-7-7-6-7-9-6-7-8-|
||-----------------------|-----------------------|


    PM----|    PM----|
|----------------------|--------------------------||--------*|
|----------------------|-------------------------o||--------*|
|----------------------|-------------------9tr10--||--------*|
|-9---------10---------|-------------9tr10--------||-9------*|
|-7-7-7-7-7--8-8-8-8-8-|-6-7-9-6-7-8-------------o||-7------*|
|----------------------|--------------------------||--------*|


Tablature Legend
----------------
 h   - hammer-on
 p   - pull-off
 b   - bend
 pb  - pre-bend
 r   - bend release (if no number after the r, then release immediately)
 /  - slide into or out of (from/to "nowhere")
 s   - legato slide
 S   - shift slide
<n>  - natural harmonic
[n]  - artificial harmonic
n(n) - tapped harmonic
 ~   - vibrato
 tr  - trill
 T   - tap
 TP  - trem. picking
 PM  - palm muting
n/  - tremolo bar dip; n = amount to dip
 n  - tremolo bar down
 n/  - tremolo bar up
/n  - tremolo bar inverted dip
 =   - hold bend; also acts as connecting device for hammers/pulls
 <>  - volume swell (louder/softer)
 x   - on rhythm slash represents muted slash
 o   - on rhythm slash represents single note slash

Misc Legend
-----------
 |  - bar
||  - double bar
||o - repeat start
o|| - repeat end
*|  - double bar (ending)
 :  - bar (freetime)
 $  - Segno
 &  - Coda
Tempo markers - <E/E./Q/Q./H/H.> = BPM(8/16=s8/s16),
where s8 = swing 8ths, s16 = swing 16ths

  Visit MetalTabs.com for more metal tablature

bottom separator

Contact Us | Privacy Policy | Disclaimer | Legal Notice
Copyright © 2001-2014 MetalTabs.com. All Rights Reserved.