top separator

Home

Forum

What's New

Submit a Tab

FAQ

Links

Contact Us

Link to Us

MuSpy.com

MetalTabs.com logo

Bands

0-9

A

B

C

D

E

F

G

H

I

J

K

L

M

N

O

P

Q

R

S

T

U

V

W

X

Y

Z

Search

What

Where
 

Coroner - "Die By My Hand" Guitar Tab

Plain Text Version
More Coroner Tabs

Hits: 7618
Rated: 4.57 out of 5 (7 votes)
Updated: 2009-04-13 05:19:45

 

By:

MetalThrashingMad

sendpm.gif

email.gif

Important note
We did our best to reach Coroner and ask for their permission to publish this tab. Unfortunately they did not respond to our requests or we could not find a way to contact them. This tab is available online until Coroner tells us to take it down.


#----------------------------------PLEASE NOTE---------------------------------#
#This file is the author's own work and represents their interpretation of the #
#song. You may only use this file for private study, scholarship, or research. #
#Unless specified otherwise, this is NOT an official tab from the band members.#
#------------------------------------------------------------------------------#

  Visit MetalTabs.com for more metal tablature
  
DIE BY MY HAND
                             As recorded by Coroner
                       (From the 1989 Album NO MORE COLOR)
                            Copyright (c) Noise 1989

Arranged by Coroner
Transcribed by Steve Rubaszek - MetalThrashingMad
Email - Steve - Thrasher502@hotmail.com
Version - 3.0 - 04-04-2007

Gtr I (E A D G B E) - 'Tommy rhythm'
Gtr II (E A D G B E) - 'Tommy lead'
Gtr III (E A D G B E) - 'Tommy fill'
Gtr IV (E A D G B E) - 'noise'

   0:00
    Q=160
   4/4
    Gtr IV

                                        TPTPTPTP
                       3x
||----------|----------||---------|-------------||
||o---------|---------o||---------|-------------||
||----------|----------||---------|-------------||
||----------|----------||---------|-------------||
||o---------|---------o||---------|-----xsxsxsx-||
||----------|----------||---------|-----xsxsxsx-||


   0:12
    Gtr I
                                                             4x
||------------------------------|----------------------------||
||o-----------------------------|-----------------5-5-7-8\--o||
||------------------------------|-3---3-4-3-4-6-3------------||
||--------------2-2-4-2-4-5-4-5-|---5------------------------||
||o-1---1-2-4-1-----------------|---------------------------o||
||----3-------------------------|----------------------------||


   0:24
   15/16
        PM------------------|       PM------------------|
||----------------------------|---------------------------|
||o---------------------------|---------------------------|
||----------------------------|---------------------------|
||----------------------------|---------------------------|
||o-4-4-2-4-5-4-5-4-2-----2-4-|-4-4-2-4-5-4-5-4-2-----2-4-|
||--2-2---------------5-3-----|-2-2---------------5-3-----|


                             4/4
      PM------------------|       PM----|
|---------------------------|-----------------------||
|---------------------------|----------------------o||
|---------------------------|-----------------------||
|---------------------------|-------------7S5-5-----||
|-4-4-2-4-5-4-5-4-2-----2-4-|-4-4-2-4-5-4-7S5-5----o||
|-2-2---------------5-3-----|-2-2-------------------||


      PM------------------|         PM------------------|
|-----------------------------|-----------------------------|
|-----------------------------|-----------------------------|
|-----------------------------|-----------------------------|
|-----------------------------|-----------------------------|
|-4-4-2-4-5-4-5-4-2-----2-4-2-|-4-4-2-4-5-4-5-4-2-----2-4-2-|
|-2-2---------------5-3-------|-2-2---------------5-3-------|


      PM------------------|         PM----|
|-----------------------------|----------------------|
|-----------------------------|----------------------|
|-----------------------------|----------------------|
|-----------------------------|-------------7S5-5----|
|-4-4-2-4-5-4-5-4-2-----2-4-2-|-4-4-2-4-5-4-7S5-5----|
|-2-2---------------5-3-------|-2-2------------------|


   15/16
        PM------------------|       PM------------------|
||----------------------------|---------------------------|
||o---------------------------|---------------------------|
||----------------------------|---------------------------|
||----------------------------|---------------------------|
||o-4-4-2-4-5-4-5-4-2-----2-4-|-4-4-2-4-5-4-5-4-2-----2-4-|
||--2-2---------------5-3-----|-2-2---------------5-3-----|


                             4/4
      PM------------------|       PM----|
|---------------------------|-----------------------||
|---------------------------|----------------------o||
|---------------------------|-----------------------||
|---------------------------|-------------7S5-5-----||
|-4-4-2-4-5-4-5-4-2-----2-4-|-4-4-2-4-5-4-7S5-5----o||
|-2-2---------------5-3-----|-2-2-------------------||


 0:49
  Q=145
  PM------|        PM------|        PM------|        PM------|
|----------------|----------------|----------------|----------------|
|----------------|----------------|----------------|----------------|
|----------------|----------------|----------------|----------------|
|----------------|----------------|----------------|----------------|
|-----------5-5--|-----------5-5--|-----------5-5--|-----------5-5--|
|-0-0-0-0-0-3-3--|-0-0-0-0-0-3-3--|-0-0-0-0-0-3-3--|-0-0-0-0-0-3-3--|


  PM------|        PM------|        PM------|        PM------|
|----------------|----------------|----------------|----------------|
|----------------|----------------|----------------|----------------|
|----------------|----------------|----------------|----------------|
|----------------|----------------|----------------|----------------|
|-----------5-5--|-----------5-5--|-----------5-5--|-----------5-5--|
|-3-3-3-3-3-3-3--|-3-3-3-3-3-3-3--|-0-0-0-0-0-3-3--|-0-0-0-0-0-3-3--|


   1:01
      PM----|       PM----|     PM----|   PM----|   PM--|
||--------------------------|------------------------------||
||o-------------------------|-----------------------------o||
||--------------------------|------------------------------||
||--------------------------|------------------------------||
||o-----------2---3---------|-4---------3---------2-------o||
||--0-2-3-4-5---2---2-3-4-5-|---2-3-4-5---2-3-4-5---5-4-3--||


 1:07
  PM------|        PM------|        PM------|        PM------|
|----------------|----------------|----------------|----------------|
|----------------|----------------|----------------|----------------|
|----------------|----------------|----------------|----------------|
|----------------|----------------|----------------|----------------|
|-----------5-5--|-----------5-5--|-----------5-5--|-----------5-5--|
|-0-0-0-0-0-3-3--|-0-0-0-0-0-3-3--|-0-0-0-0-0-3-3--|-0-0-0-0-0-3-3--|


  PM------|        PM------|        PM------|        PM------|
|----------------|----------------|----------------|----------------|
|----------------|----------------|----------------|----------------|
|----------------|----------------|----------------|----------------|
|----------------|----------------|----------------|----------------|
|-----------5-5--|-----------5-5--|-----------5-5--|-----------5-5--|
|-3-3-3-3-3-3-3--|-3-3-3-3-3-3-3--|-0-0-0-0-0-3-3--|-0-0-0-0-0-3-3--|


   1:21
      PM----|       PM----|     PM----|   PM----|   PM--|
||--------------------------|------------------------------||
||o-------------------------|-----------------------------o||
||--------------------------|------------------------------||
||--------------------------|------------------------------||
||o-----------2---3---------|-4---------3---------2-------o||
||--0-2-3-4-5---2---2-3-4-5-|---2-3-4-5---2-3-4-5---5-4-3--||


   1:27
    Gtr III
||------12----------------------|
||o-----15b17-------------------|
||------------------------------|
||------------------------------|
||o-----------------------------|
||------------------------------|
|
|   Gtr I
|   PM--------|
||------------------------------|
||o-----------------------------|
||------------------------------|
||------------------------------|
||o-2-2--2----2-3S5---5-6---7S8-|
||--0-0--0----0-1S3-0-3-4-0-5S6-|


|-----11----------------------|-----15----------------------|
|-----14b16-------------------|-----18b20-------------------|
|-----------------------------|-----------------------------|
|-----------------------------|-----------------------------|
|-----------------------------|-----------------------------|
|-----------------------------|-----------------------------|
|
| PM--------|                   PM--------|
|-----------------------------|-----------------------------|
|-----------------------------|-----------------------------|
|-----------------------------|-----------------------------|
|-----------------------------|-----------------------------|
|-2-2--2----2-3S5---5-6---7S8-|-2-2--2----2-3S5---5-6---7S8-|
|-0-0--0----0-1S3-0-3-4-0-5S6-|-0-0--0----0-1S3-0-3-4-0-5S6-|


  1.                           2.
|-----14---------------------||-----14--------------------||
|-----17b19-----------------o||-----17b19-----------------||
|----------------------------||---------------------------||
|----------------------------||---------------------------||
|---------------------------o||---------------------------||
|----------------------------||---------------------------||
|
| PM--------------------|       PM--------------------|
|----------------------------||---------------------------||
|---------------------------o||---------------------------||
|----------------------------||---------------------------||
|----------------------------||---------------------------||
|-2-2--2----2-5-5-5-5-5-5-3-o||-2-2--2----2-------------4-||
|-0-0--0----0-3-3-3-3-3-3-1--||-0-0--0----0-6-4-3-5-2-2-2-||


   1:40
   9/8
    Gtr II
||--9-6-----6---------------------9-6----||-|
||o-----8-9---8-9-6-8-9-6---6-9-8-----8-o||-|
||------------------------7--------------||-|
||---------------------------------------||-|
||o-------------------------------------o||-|
||---------------------------------------||-|
|
|   Gtr I
|                                   PM
||---------------------------------------||-|
||o-------------------------------------o||-|
||---------------------------------------||-|
||---------------------------------------||-|
||o-7-------------------------------7---o||-|
||--5-------------------------------5----||-|


||--8-5-----5---------------------8-5-----||
||o-----7-8---7-8-5-7-8-5---5-8-7-----7--o||
||------------------------6---------------||
||----------------------------------------||
||o--------------------------------------o||
||----------------------------------------||
|
|                                   PM
||----------------------------------------||
||o--------------------------------------o||
||----------------------------------------||
||----------------------------------------||
||o-6-------------------------------6----o||
||--4-------------------------------4-----||


||--9-6-----6---------------------9-6----||
||o-----8-9---8-9-6-8-9-6---6-9-8-----8-o||
||------------------------7--------------||
||---------------------------------------||
||o-------------------------------------o||
||---------------------------------------||
|
||---------------------------------------||
||o-------------------------------------o||
||---------------------------------------||
||---------------------------------------||
||o-7-------7-------7-------7-------7---o||
||--5-------5-------5-------5-------5----||


|-||--8-5-----5---------------------8-5----||
|-||o-----7-8---7-8-5-7-8-5---5-8-7-----7-o||
|-||------------------------6--------------||
|-||---------------------------------------||
|-||o-------------------------------------o||
|-||---------------------------------------||
|
|-||---------------------------------------||
|-||o-------------------------------------o||
|-||---------------------------------------||
|-||---------------------------------------||
|-||o-6-------6-------6-------6-------6---o||
|-||--4-------4-------4-------4-------4----||


 1:55
  Q=155
 15/16
  Gtr I
      PM------------------|       PM------------------|
|---------------------------|---------------------------|
|---------------------------|---------------------------|
|---------------------------|---------------------------|
|---------------------------|---------------------------|
|-4-4-2-4-5-4-5-4-2-----2-4-|-4-4-2-4-5-4-5-4-2-----2-4-|
|-2-2---------------5-3-----|-2-2---------------5-3-----|


 4/4
      PM--------------------|       PM----|
|-----------------------------|----------------------
|-----------------------------|----------------------
|-----------------------------|----------------------
|-----------------------------|-------------7S5-5----
|-4-4-2-4-5-4-5-4-2-----2-4-2-|-4-4-2-4-5-4-7S5-5----
|-2-2---------------5-3-------|-2-2------------------


   15/16
        PM------------------|       PM------------------|
||----------------------------|---------------------------|
||o---------------------------|---------------------------|
||----------------------------|---------------------------|
||--4-4-2-4-5-4-5-4-2-----2-4-|-4-4-2-4-5-4-5-4-2-----2-4-|
||o-2-2---------------5-3-----|-2-2---------------5-3-----|
||----------------------------|---------------------------|


                             4/4
      PM------------------|       PM----|
|---------------------------|--------------------||
|---------------------------|-------------------o||
|---------------------------|--------------------||
|-4-4-2-4-5-4-5-4-2-----2-4-|-4-4-2-4-5-4-7S5-5--||
|-2-2---------------5-3-----|-2-2---------7S5-5-o||
|---------------------------|--------------------||


 2:13
  Q=145
  PM------|        PM------|        PM------|        PM------|
|----------------|----------------|----------------|----------------|
|----------------|----------------|----------------|----------------|
|----------------|----------------|----------------|----------------|
|-6-6-6-6-6-7-7--|-6-6-6-6-6-7-7--|-4-4-4-4-4-5-5--|-4-4-4-4-4-5-5--|
|-4-4-4-4-4-5-5--|-4-4-4-4-4-5-5--|-2-2-2-2-2-3-3--|-2-2-2-2-2-3-3--|
|----------------|----------------|----------------|----------------|


  PM------|        PM------|           PM   PM------|      PM   PM------|
|----------------|----------------|-------------------|--------------------||
|----------------|----------------|-------------------|--------------------||
|----------------|----------------|-------------------|--------------------||
|-6-6-6-6-6-7-7--|-6-6-6-6-6--7---|-------------------|--------------------||
|-4-4-4-4-4-5-5--|-4-4-4-4-4--5---|-5----5------------|-5----5-------------||
|----------------|----------------|-3--0-3--0-0-0-0-0-|-3--0-3--0-0-0-0-0--||


   2:26
    PM----|     PM----|       PM----|
                                                 4x
||--------------------------|--------------------||
||o-------------------------|-------------------o||
||--------------------------|--------------------||
||----------9-7---------7-6-|---------6-5--5-----||
||o---------7-5---------5-4-|---------4-3--3--5-o||
||--0-0-0-0-----0-0-0-0-----|-0-0-0-0---------3--||


   2:38
      PM----|       PM----|     PM----|   PM----|   PM--|
||--------------------------|------------------------------||
||o-------------------------|-----------------------------o||
||--------------------------|------------------------------||
||--------------------------|------------------------------||
||o-----------2---3---------|-4---------3---------2-------o||
||--0-2-3-4-5---2---2-3-4-5-|---2-3-4-5---2-3-4-5---5-4-3--||


 2:45
  PM------|        PM------|        PM------|        PM------|
|----------------|----------------|----------------|----------------|
|----------------|----------------|----------------|----------------|
|----------------|----------------|----------------|----------------|
|----------------|----------------|----------------|----------------|
|-----------5-5--|-----------5-5--|-----------5-5--|-----------5-5--|
|-0-0-0-0-0-3-3--|-0-0-0-0-0-3-3--|-0-0-0-0-0-3-3--|-0-0-0-0-0-3-3--|


  PM------|        PM------|        PM------|        PM------|
|----------------|----------------|----------------|----------------||
|----------------|----------------|----------------|----------------||
|----------------|----------------|----------------|----------------||
|----------------|----------------|----------------|----------------||
|-----------5-5--|-----------5-5--|-----------5-5--|-----------5-5--||
|-3-3-3-3-3-3-3--|-3-3-3-3-3-3-3--|-0-0-0-0-0-3-3--|-0-0-0-0-0-3-3--||


   2:58
      PM----|       PM----|     PM----|   PM----|   PM--|
||--------------------------|------------------------------||
||o-------------------------|-----------------------------o||
||--------------------------|------------------------------||
||--------------------------|------------------------------||
||o-----------2---3---------|-4---------3---------2-------o||
||--0-2-3-4-5---2---2-3-4-5-|---2-3-4-5---2-3-4-5---5-4-3--||


 3:03
  PM------|        PM------|        PM------|        PM------|
|----------------|----------------|----------------|----------------|
|----------------|----------------|----------------|----------------|
|----------------|----------------|----------------|----------------|
|----------------|----------------|----------------|----------------|
|-----------5-5--|-----------5-5--|-----------5-5--|-----------5-5--|
|-0-0-0-0-0-3-3--|-0-0-0-0-0-3-3--|-0-0-0-0-0-3-3--|-0-0-0-0-0-3-3--|


  PM------|        PM------|        PM------|        PM------|
|----------------|----------------|----------------|----------------||
|----------------|----------------|----------------|----------------||
|----------------|----------------|----------------|----------------||
|----------------|----------------|----------------|----------------||
|-----------5-5--|-----------5-5--|-----------5-5--|-----------5-5--||
|-3-3-3-3-3-3-3--|-3-3-3-3-3-3-3--|-0-0-0-0-0-3-3--|-0-0-0-0-0-3-3--||


   3:16
      PM--------|   PM  PM------|   PM----|   PM
||------------------------|---------------------------||
||o-----------------------|--------------------------o||
||------------------------|---------------------------||
||------------------------|---------------------[4]\--||
||o-2-------------2---3---|-------4---------3--------o||
||--0-0-0-0-0-0-0---0---0-|-0-0-0---0-0-0-0---0-------||


   3:26
    Gtr III
||------12----------------------|
||o-----15b17-------------------|
||------------------------------|
||------------------------------|
||o-----------------------------|
||------------------------------|
|
|   Gtr I
|   PM--------|
||------------------------------|
||o-----------------------------|
||------------------------------|
||------------------------------|
||o-2-2--2----2-3S5---5-6---7S8-|
||--0-0--0----0-1S3-0-3-4-0-5S6-|


|-----11----------------------|-----15----------------------|
|-----14b16-------------------|-----18b20-------------------|
|-----------------------------|-----------------------------|
|-----------------------------|-----------------------------|
|-----------------------------|-----------------------------|
|-----------------------------|-----------------------------|
|
| PM--------|                   PM--------|
|-----------------------------|-----------------------------|
|-----------------------------|-----------------------------|
|-----------------------------|-----------------------------|
|-----------------------------|-----------------------------|
|-2-2--2----2-3S5---5-6---7S8-|-2-2--2----2-3S5---5-6---7S8-|
|-0-0--0----0-1S3-0-3-4-0-5S6-|-0-0--0----0-1S3-0-3-4-0-5S6-|


  1.                           2.
                               5/4
|-----14---------------------||-----14-----------------------||
|-----17b19-----------------o||-----17b19--------------------||
|----------------------------||------------------------------||
|----------------------------||------------------------------||
|---------------------------o||------------------------------||
|----------------------------||------------------------------||
|
| PM--------------------|       PM--------------------|
|----------------------------||------------------------------||
|---------------------------o||------------------------------||
|----------------------------||------------------------------||
|----------------------------||------------------------------||
|-2-2--2----2-5-5-5-5-5-5-3-o||-2-2--2----2-------------4--4-||
|-0-0--0----0-3-3-3-3-3-3-1--||-0-0--0----0-6-4-3-5-2-2-2--2-||


 3:36
 4/4
|-----12----------------------|
|-----15b17-------------------|
|-----------------------------|
|-----------------------------|
|-----------------------------|
|-----------------------------|
|
| PM--------|
|-----------------------------|
|-----------------------------|
|-----------------------------|
|-----------------------------|
|-2-2--2----2-3S5---5-6---7S8-|
|-0-0--0----0-1S3-0-3-4-0-5S6-|


|-----11----------------------|-----15----------------------|
|-----14b16-------------------|-----18b20-------------------|
|-----------------------------|-----------------------------|
|-----------------------------|-----------------------------|
|-----------------------------|-----------------------------|
|-----------------------------|-----------------------------|
|
| PM--------|                   PM--------|
|-----------------------------|-----------------------------|
|-----------------------------|-----------------------------|
|-----------------------------|-----------------------------|
|-----------------------------|-----------------------------|
|-2-2--2----2-3S5---5-6---7S8-|-2-2--2----2-3S5---5-6---7S8-|
|-0-0--0----0-1S3-0-3-4-0-5S6-|-0-0--0----0-1S3-0-3-4-0-5S6-|


|-----14--------------------|-------*|
|-----17b19-----------------|-------*|
|---------------------------|-------*|
|---------------------------|-------*|
|---------------------------|-------*|
|---------------------------|-------*|
|
| PM--------------------|     PM
|---------------------------|-------*|
|---------------------------|-------*|
|---------------------------|-------*|
|---------------------------|-------*|
|-2-2--2----2-5-5-5-5-5-5-3-|-2-----*|
|-0-0--0----0-3-3-3-3-3-3-1-|-0-----*|


Tablature Legend
----------------
 h   - hammer-on
 p   - pull-off
 b   - bend
 pb  - pre-bend
 r   - bend release (if no number after the r, then release immediately)
 /  - slide into or out of (from/to "nowhere")
 s   - legato slide
 S   - shift slide
<n>  - natural harmonic
[n]  - artificial harmonic
n(n) - tapped harmonic
 ~   - vibrato
 tr  - trill
 T   - tap
 TP  - trem. picking
 PM  - palm muting
n/  - tremolo bar dip; n = amount to dip
 n  - tremolo bar down
 n/  - tremolo bar up
/n  - tremolo bar inverted dip
 =   - hold bend; also acts as connecting device for hammers/pulls
 <>  - volume swell (louder/softer)
 x   - on rhythm slash represents muted slash
 o   - on rhythm slash represents single note slash

Misc Legend
-----------
 |  - bar
||  - double bar
||o - repeat start
o|| - repeat end
*|  - double bar (ending)
 :  - bar (freetime)
 $  - Segno
 &  - Coda
Tempo markers - <E/E./Q/Q./H/H.> = BPM(8/16=s8/s16),
where s8 = swing 8ths, s16 = swing 16ths

  Visit MetalTabs.com for more metal tablature

bottom separator

Contact Us | Privacy Policy | Disclaimer | Legal Notice
Copyright © 2001-2014 MetalTabs.com. All Rights Reserved.