top separator

Home

Forum

What's New

Submit a Tab

FAQ

Links

Contact Us

Link to Us

MuSpy.com

MetalTabs.com logo

Bands

0-9

A

B

C

D

E

F

G

H

I

J

K

L

M

N

O

P

Q

R

S

T

U

V

W

X

Y

Z

Search

What

Where
 

Agent Steel - "Agents of Steel" Guitar Tab

Plain Text Version
More Agent Steel Tabs

Hits: 9663
Rated: 3.80 out of 5 (15 votes)
Updated: 2009-01-07 01:39:40

 

By:

MetalThrashingMad

sendpm.gif

email.gif

Important note
This tab is available online because we obtained explicit permission from Agent Steel or their label.


#----------------------------------PLEASE NOTE---------------------------------#
#This file is the author's own work and represents their interpretation of the #
#song. You may only use this file for private study, scholarship, or research. #
#Unless specified otherwise, this is NOT an official tab from the band members.#
#------------------------------------------------------------------------------#

  Visit MetalTabs.com for more metal tablature
  
AGENTS OF STEEL
                    (From the 1985 Album SKEPTICS APOCALYPSE)
                       Copyright (c) Combat Records 1987

Arranged by Agent Steel
Transcribed by Steve Rubaszek
Version - Last

Gtr I (E A D G B E) - 'Guitar 1'
Gtr II (E A D G B E) - 'Guitar 2'

 0:00
  Q=193
 4/4
  Gtr I                                         Gtrs I, II
|---------|----------|-------------|------------|-------------|
|---------|----------|-------------|------------|-------------|
|---------|----------|-------------|------------|-------------|
|---------|----------|-8--7-8---5--|------------|-8--7-8---5--|
|---------|-5--------|-6--5-6---3--|-5----------|-6--5-6---3--|
|---------|-3--------|-------------|-3----------|-------------|


   0:06 , 0:31
    $
      PM------------------------|
                                                 6x
||--------------------------------|--------------||
||o-------------------------------|-------------o||
||--------------------------------|--------------||
||--------------------------------|-8--7-8---5---||
||o-5-----------------------------|-6--5-6---3--o||
||--3-3-3-3-3-3-3-3-3-3-3-3-3-3-3-|--------------||


        PM------------------------|
|-||--------------------------------|--------------|
|-||o-------------------------------|--------------|
|-||--------------------------------|--------------|
|-||--4-----------------------------|-5--4-5-8--5--|
|-||o-2-2-2-2-2-2-2-2-2-2-2-2-2-2-2-|-3--2-3-6--3--|
|-||--------------------------------|--------------|


                                                  D
    PM------------------------|
|-------------------------------|--------------||-|
|-------------------------------|-------------o||-|
|-------------------------------|--------------||-|
|-4-----------------------------|-5--4-5-7-----||-|
|-2-2-2-2-2-2-2-2-2-2-2-2-2-2-2-|-3--2-3-5----o||-|
|-------------------------------|--------------||-|


 .S.
      PM------------------------|
                                                 4x
||--------------------------------|--------------||
||o-------------------------------|-------------o||
||--------------------------------|--------------||
||--------------------------------|-8--7-8---5---||
||o-5-----------------------------|-6--5-6---3--o||
||--3-3-3-3-3-3-3-3-3-3-3-3-3-3-3-|--------------||


   1:06
-------------------------------------------------------TP
              4x               4x
||------------||-||------------||-||------------||-||--------||
||o----------o||-||o----------o||-||o----------o||-||o------o||
||------------||-||------------||-||------------||-||--------||
||------------||-||------------||-||--2---------||-||--9-----||
||o-2--------o||-||o-3--------o||-||o----------o||-||o------o||
||------------||-||------------||-||------------||-||--------||


   1:26
      PM------------------------|
                                                 4x
||--------------------------------|--------------||
||o-------------------------------|-------------o||
||--------------------------------|--------------||
||--------------------------------|-8--7-8---5---||
||o-5-----------------------------|-6--5-6---3--o||
||--3-3-3-3-3-3-3-3-3-3-3-3-3-3-3-|--------------||


        PM------------------------|
|-||--------------------------------|--------------|
|-||o-------------------------------|--------------|
|-||--------------------------------|--------------|
|-||--4-----------------------------|-5--4-5-8--5--|
|-||o-2-2-2-2-2-2-2-2-2-2-2-2-2-2-2-|-3--2-3-6--3--|
|-||--------------------------------|--------------|


    PM------------------------|
|-------------------------------|--------------||-|
|-------------------------------|-------------o||-|
|-------------------------------|--------------||-|
|-4-----------------------------|-5--4-5-7-----||-|
|-2-2-2-2-2-2-2-2-2-2-2-2-2-2-2-|-3--2-3-5----o||-|
|-------------------------------|--------------||-|


      PM------------------------|
                                                 6x
||--------------------------------|--------------||
||o-------------------------------|-------------o||
||--------------------------------|--------------||
||--------------------------------|-8--7-8---5---||
||o-5-----------------------------|-6--5-6---3--o||
||--3-3-3-3-3-3-3-3-3-3-3-3-3-3-3-|--------------||


      PM------------------------|
||--------------------------------|--------------|
||o-------------------------------|--------------|
||--------------------------------|--------------|
||--4-----------------------------|-5--4-5-8--5--|
||o-2-2-2-2-2-2-2-2-2-2-2-2-2-2-2-|-3--2-3-6--3--|
||--------------------------------|--------------|


    PM------------------------|
|-------------------------------|--------------||
|-------------------------------|-------------o||
|-------------------------------|--------------||
|-4-----------------------------|-5--4-5-7-----||
|-2-2-2-2-2-2-2-2-2-2-2-2-2-2-2-|-3--2-3-5----o||
|-------------------------------|--------------||


      PM---------------------------
||--------------------------------|
||o-------------------------------|
||--------------------------------|
||--------------------------------|
||o-5-----------------------------|
||--3-3-3-3-3-3-3-3-3-3-3-3-3-3-3-|


                     2:21
 --------------------------------------TP
               4x               4x           4x
|--------------||-||------------||-||--------||
|-------------o||-||o----------o||-||o------o||
|--------------||-||------------||-||--------||
|-8--7-8---5---||-||------------||-||--------||
|-6--5-6---3--o||-||o-2--------o||-||o-3----o||
|--------------||-||------------||-||--------||


---------------------TP
              4x               4x
||------------||-||------------||-|
||o----------o||-||o----------o||-|
||------------||-||------------||-|
||--2---------||-||--9---------||-|
||o----------o||-||o----------o||-|
||------------||-||------------||-|


   2:42
      PM------------------------|
                                                   4x
||--------------------------------|----------------||
||o-------------------------------|---------------o||
||--------------------------------|----------------||
||--------------------------------|-8--7-8---5-----||
||o-5-----------------------------|-6--5-6---3----o||
||--3-3-3-3-3-3-3-3-3-3-3-3-3-3-3-|----------------||


                                         7x
||---------------||----------||----------||
||o-------------o||----------||o--------o||
||---------------||----------||----------||
||--8--7-8---5---||----------||----------||
||o-6--5-6---3--o||-5--------||o-(5)----o||
||---------------||-3--------||--(3)-----||


Tablature Legend
----------------
 h   - hammer-on
 p   - pull-off
 b   - bend
 pb  - pre-bend
 r   - bend release (if no number after the r, then release immediately)
 /\  - slide into or out of (from/to "nowhere")
 s   - legato slide
 S   - shift slide
<n>  - natural harmonic
[n]  - artificial harmonic
n(n) - tapped harmonic
 ~   - vibrato
 tr  - trill
 T   - tap
 TP  - trem. picking
 PM  - palm muting
\n/  - tremolo bar dip; n = amount to dip
 \n  - tremolo bar down
 n/  - tremolo bar up
/n\  - tremolo bar inverted dip
 =   - hold bend; also acts as connecting device for hammers/pulls
 <>  - volume swell (louder/softer)
 x   - on rhythm slash represents muted slash
 o   - on rhythm slash represents single note slash

Misc Legend
-----------
 |  - bar
||  - double bar
||o - repeat start
o|| - repeat end
*|  - double bar (ending)
 :  - bar (freetime)
 $  - Segno
 &  - Coda
Tempo markers - <E/E./Q/Q./H/H.> = BPM(8/16=s8/s16),
 where s8 = swing 8ths, s16 = swing 16ths

  Visit MetalTabs.com for more metal tablature

bottom separator

Contact Us | Privacy Policy | Disclaimer | Legal Notice
Copyright © 2001-2014 MetalTabs.com. All Rights Reserved.