top separator

Home

Forum

What's New

Submit a Tab

FAQ

Links

Contact Us

Link to Us

MetalTabs.com logo

Bands

0-9

A

B

C

D

E

F

G

H

I

J

K

L

M

N

O

P

Q

R

S

T

U

V

W

X

Y

Z

Search

What

Where
 

Sodom - "Procession To Golgatha" Guitar Tab

Plain Text Version
More Sodom Tabs

Hits: 4613
Rated: 5.00 out of 5 (5 votes)
Updated: 2005-02-08 05:34:19

 

By:

MetalThrashingMad

sendpm.gif

email.gif

Important note
This tab is available online because we obtained explicit permission from Sodom or their label.


#----------------------------------PLEASE NOTE---------------------------------#
#This file is the author's own work and represents their interpretation of the #
#song. You may only use this file for private study, scholarship, or research. #
#Unless specified otherwise, this is NOT an official tab from the band members.#
#------------------------------------------------------------------------------#

  Visit MetalTabs.com for more metal tablature
  
Band: Sodom
Album: Persecution Mania
Song: Procession To Golgatha
Copyright (c) Steamhammer 1987
Version 1.0 - 2-6-2005
Transcribed By: Steve - MetalThrashingMad
Email: Thrasher502@hotmail.com

* - palm mute                    /
s - slide                       /
~ - vibrato                    /   - bend  up as indicated
h - hammer on
p - pull off                   \
t - right hand tapping          \
( ) - sustained note             \ - bend down as indicated
[] - side note
% - end riff
nh - natural harmonic            |
ph - pinched harmonic            |
tr - trill                       | - pre-bend as indicated
# - percussive note
.+ - continue to next staff      - - - - - hold note as indicated
Suffixes for bends:
5 - half step
1 - whole step
1.5 - step and a half
2 - two steps
2.5 - two and a half steps
[w/bar] - use tremolo bar

Gitarre- Frank "Blackfire" Gosdzik
Tuning E A D G B E

================================================================================

[play 4 times]         [play 2 times]                      [play 2 times]
|---------------------|----------------|------------------|-------------------|
|---------------------|----------------|------------------|-------------------|
|---------------------|----------------|------------------|-------------------|
|---------------------|----------------|-------4----------|-------------------|
|-2----8s9-9-7---4--2-|-8s9-9-7---4--2-|-5-2---2---4--2---|-8s9-9-7---4--2----|
|-0----6s7-7-5-0-2--0-%-6s7-7-5-0-2--0-%-3-4-0---0-2--0---|-6s7-7-5-0-2--0----|


[play 2 times]
|-------------------------------------------|
|-------------------------------------------|
|-------------------------------------------|
|---------------------------------------3-4-|
|-2----2----2----5-6--2-----2-----2-----1-2-|
|-0-00-0-00-0-00-3-4--0-000-0-000-0-000-----|

[play 2 times]
|---------------------|----------------|
|---------------------|----------------|
|---------------------|----------------|
|---------------------|----------------|
|-2----8s9-9-7---4--2-|-8s9-9-7---4--2-|
|-0----6s7-7-5-0-2--0-%-6s7-7-5-0-2--0-%

END

  Visit MetalTabs.com for more metal tablature

bottom separator

Contact Us | Privacy Policy | Disclaimer | Legal Notice
Copyright © 2001-2014 MetalTabs.com. All Rights Reserved.