top separator

Home

Forum

What's New

Submit a Tab

FAQ

Links

Contact Us

Link to Us

MuSpy.com

MetalTabs.com logo

Bands

0-9

A

B

C

D

E

F

G

H

I

J

K

L

M

N

O

P

Q

R

S

T

U

V

W

X

Y

Z

Search

What

Where
 

Suffocation - "Tomes of Acrimony" Guitar Tab

Plain Text Version
More Suffocation Tabs

Hits: 5776
Rated: 4.60 out of 5 (5 votes)
Updated: 2005-02-08 05:31:08

 

By:

Stachio

sendpm.gif

email.gif

Important note
This tab is available online because we obtained explicit permission from Suffocation or their label.


#----------------------------------PLEASE NOTE---------------------------------#
#This file is the author's own work and represents their interpretation of the #
#song. You may only use this file for private study, scholarship, or research. #
#Unless specified otherwise, this is NOT an official tab from the band members.#
#------------------------------------------------------------------------------#

  Visit MetalTabs.com for more metal tablature
  
TOMES OF ACRIMONY
                           As recorded by Suffocation
                       (From the 2004 Album SOULS TO DENY)

Words by Frank Mullen
Music by Suffocation and Keith DeVito
Arranged by Suffocation and Keith DeVito
Transcribed by Gael Pirlot (GaelPirlot@gmail.com)

Gtr I (Db Gb B E Ab Db) - 'Guy Marchais'
Gtr II (Db Gb B E Ab Db) - 'Terrance Hobbs'
Gtr III (Db Gb B E Ab Db) - 'Lead'

 Intro
  Q=210
 4/4
  Gtrs I, II
           PM--|            PM----|             PM----|          PM-------
|-----------------------------------|------------------------------------|
|-----------------------------------|------------------------------------|
|-----------------------------------|------------------------------------|
|-9\--------------------------------|------------------------------------|
|-7\---------------9---12-----------|-14---10-----------9---12-----------|
|----------0-0-0-0----------0-0-0-0-|-----------0-0-0-0----------0-0-0---|
|
| Gtr III
|-----------------------------------|------------------------------------|
|------------------9-9--9-9-9-9-9-9-|--8-8--8-8-8-8-8-8------------------|
|-9--9-9-9-9-9-9-9------------------|-------------------5-5--5-5-5-5-5-5-|
|-----------------------------------|------------------------------------|
|-----------------------------------|------------------------------------|
|-----------------------------------|------------------------------------|


 -|       PM----|         PM------|       PM----|         PM|
|-------------------------------|-------------------------------|
|-------------------------------|-------------------------------|
|-------------------------------|-------------------------------|
|-------------------------------|-------------------------------|
|-------9---------10----9-------|-------9-----------------------|
|-10------0-0-0-0---------0-0-0-|-10------0-0-0-0-7----10-0-0---|
|
|-------------------------------|-----------------7tr8----------|
|-------------------------------|--6tr7-------------------------|
|------------------3tr4---------|-------------------------------|
|--4tr5-------------------------|-------------8-----------------|
|-------------------------------|-------------------------------|
|-------------------------------|-------------------------------|


  Gtrs I, II
          PM----|          PM----|             PM----|          PM-------
|----------------------------------|------------------------------------|
|----------------------------------|------------------------------------|
|----------------------------------|------------------------------------|
|-9--------------------------------|------------------------------------|
|-7---------------9---12-----------|-14---10-----------9---12-----------|
|---------0-0-0-0----------0-0-0-0-|-----------0-0-0-0----------0-0-0---|
|
| Gtr III
|----------------------------------|------------------------------------|
|-----------------9-9--9-9-9-9-9-9-|--8-8--8-8-8-8-8-8------------------|
|-9-9-9-9-9-9-9-9------------------|-------------------5-5--5-5-5-5-5-5-|
|----------------------------------|------------------------------------|
|----------------------------------|------------------------------------|
|----------------------------------|------------------------------------|


 -|       PM----|     PM------|     PM----------|              PM----|
|---------------------------|----------------------------------------------|
|---------------------------|----------------------------------------------|
|---------------------------|----------------------------------------------|
|---------------------------|----------------------------------------------|
|-------9----------11-------|----10---------------10--14-------------------|
|-10------0-0-0-13----0-0-0-|-12----0-0---0-----0--------------0-------0---|
|
|---------------------------|-----------[12]b14r=====(12)b14r(12)b14r(12)--|
|---------------/6----------|----------------------------------------------|
|---------------------------|----------------------------------------------|
|--4tr5---------------------|-----5----------------------------------------|
|---------------------------|--7-------------------------------------------|
|---------------------------|----------------------------------------------|


  Gtrs I, II
             PM----|            PM-----|
|----------------------------------------|
|----------------------------------------|
|----------------------------------------|
|-9\-------------------------------------|
|-7\-----------------9----12-------------|
|------------0-0-0-0------------0--0-0-0-|
|
| Gtr III
|----------------------------------------|
|----10-8-7------------12-10-9-----------|
|-----------10-9-8-7-----------12-10-9-8-|
|----------------------------------------|
|----------------------------------------|
|----------------------------------------|


  Gtrs I, II
               PM------|             PM----------
|-----------------------------------------------|
|-----------------------------------------------|
|-----------------------------------------------|
|-----------------------------------------------|
|-14----10---------------9----12----------------|
|--------------0--0--0-0-------------0--0--0----|
|
| Gtr III
|-----------------------------------------------|
|----13-12-10--------------15-13-12-------------|
|-------------13-12-10-9------------15-13-12----|
|--------------------------------------------15-|
|-----------------------------------------------|
|-----------------------------------------------|


 -|            PM--------|      PM|        PM|       PM|
|-----------------------------------|------------------------|
|-----------------------------------|------------------------|
|-----------------------------------|------------------------|
|-----------------------------------|------------------------|
|--------9-----------------10-9-----|--7---------5-----------|
|-10-----------0-----0-0-0------0-0-|--9---0--0--6---0--0----|
|
|                               PM|        PM|       PM|
|-----------------------------------|------------------------|
|-----------------------------------|------------------------|
|----12h15----12tr13----------------|-13--------10-----------|
|-15-------15--------------15-------|-13--14-14-10--14-14----|
|-----------------------------------|------------------------|
|-------------------------------0-0-|------------------------|


  Gtrs I, II
    PM-----------------|              PM----------|
|---------------------------------------------------|
|---------------------------------------------------|
|---------------------------------------------------|
|---9\----------------------------------------------|
|---7\--------------------9----12-------------------|
|----------0-0----0----0--------------0-0----0----0-|
|
| Gtr III
|-/20-----------------------------------------------|
|------19-22---20---19------------------------------|
|------------------------21-19----17----------------|
|------------------------------------19---17---16---|
|---------------------------------------------------|
|---------------------------------------------------|


  Gtrs I, II
               PM-----|       PM------
|------------------------------------|
|------------------------------------|
|------------------------------------|
|------------------------------------|
|-14----10---------------9-12--------|
|--------------0-0--0-0-------0-0--0-|
|
| Gtr III
|------------------------------------|
|------------------------------------|
|-----------------------16-21--------|
|------------------------------------|
|-19-17----15-14---------------------|
|------------------15-------------12-|



 -|       PM-----|      PM-------|      PM----|          PM|
|------------------------------|-----------------------------|
|------------------------------|-----------------------------|
|------------------------------|-----------------------------|
|------------------------------|-----------------------------|
|------9------------11---------|----10----------10----14-----|
|--10-----0-0--0-13-----0-0--0-|-12-----0-0-0-0----------0-0-|
|
|                                                \2.5
|------------------------------|----------------23-----------|
|------------------------------|-15--------------------------|
|---------------------------12-|-------14---x----------------|
|-------------12---------------|-----------------------------|
|--------10----------9---------|-----------------------------|
|-(12)-----------10----11------|-----------------------------|


  Gtr I
        PM----|      PM----|         PM----|      PM-----
|----------------------------|--------------------------|
|----------------------------|--------------------------|
|----------------------------|--------------------------|
|---9\-----------------------|--------------------------|
|---7\----------9-12---------|-14-10---------9-12-------|
|-------0-0-0-0------0-0-0-0-|-------0-0-0-0------0-0-0-|
|
| Gtr II
|       PM                           PM
|----------------------------|--------------------------|
|----------------------------|--------------------------|
|----------------------------|--------------------------|
|----------------------------|--------------------------|
|-------2--------------------|-------2------------------|
|-------0--------------------|-------0------------------|
|
| Gtr IGtr III
|-(23)-----------------------|--------------------------|
|----------------------------|--------------------------|
|----------------------------|--------------------------|
|----------------------------|--------------------------|
|----------------------------|--------------------------|
|----------------------------|--------------------------|


 -|    PM----|      PM------|    PM----|      PM|
|-------------------------|-----------------------|
|-------------------------|-----------------------|
|-------------------------|-----------------------|
|-------------------------|-----------------------|
|----9---------10-9-------|----9------------------|
|-10---0-0-0-0------0-0-0-|-10---0-0-0-0-7-10-0-0-|
|
|      PM                        PM           PM
|-------------------------|-----------------------|
|-------------------------|-----------------------|
|-------------------------|-----------------------|
|-------------------------|-----------------------|
|------2------------------|------5------------7---|
|------0------------------|------3------------5---|
|
|-------------------------|-----------------------|
|-------------------------|-----------------------|
|-------------------------|-----------------------|
|-------------------------|-----------------------|
|-------------------------|-----------------------|
|-------------------------|-----------------------|


 4/4
  Gtr I
     PM----|      PM----|         PM----|      PM-----
|-------------------------|--------------------------|
|-------------------------|--------------------------|
|-------------------------|--------------------------|
|-9-----------------------|--------------------------|
|-7----------9-12---------|-14-10---------9-12-------|
|----0-0-0-0------0-0-0-0-|-------0-0-0-0------0-0-0-|
|
| Gtr II
| PM PM                           PM
|-------------------------|--------------------------|
|-------------------------|--------------------------|
|-------------------------|--------------------------|
|-------------------------|--------------------------|
|-2--2--------------------|-------2------------------|
|-0--0--------------------|-------0------------------|


 -|    PM----|     PM------|     PM----|       PM|
|------------------------|-------------------------|
|------------------------|-------------------------|
|------------------------|-------------------------|
|------------------------|-------------------------|
|----9----------11-------|----10---------10-14-----|
|-10---0-0-0-13----0-0-0-|-12----0-0-0-0-------0-0-|
|
|      PM          PM            PM            PM
|------------------------|-------------------------|
|------------------------|-------------------------|
|------------------------|-------------------------|
|------------------------|-------------------------|
|------2-----------2-----|-------2-------------2---|
|------0-----------0-----|-------0-------------0---|


  Gtrs I, II
      PM----|      PM----|         PM----|      PM-----
|--------------------------|--------------------------|
|--------------------------|--------------------------|
|--------------------------|--------------------------|
|-9\-----------------------|--------------------------|
|-7\----------9-12---------|-14-10---------9-12-------|
|-----0-0-0-0------0-0-0-0-|-------0-0-0-0------0-0-0-|


 -|    PM----|      PM|      PM|    PM|
|-----------------------|---------------|
|-----------------------|---------------|
|-----------------------|---------------|
|-----------------------|---------------|
|----9---------10-9-----|-7------5------|
|-10---0-0-0-0------0-0-|-9--0-0-6--0-0-|


  Gtrs I, II
     PM----|      PM----|         PM----|      PM-----
|-------------------------|--------------------------|
|-------------------------|--------------------------|
|-------------------------|--------------------------|
|-9-----------------------|--------------------------|
|-7----------9-12---------|-14-10---------9-12-------|
|----0-0-0-0------0-0-0-0-|-------0-0-0-0------0-0-0-|


 -|    PM----|     PM------|     PM----|       PM|
|------------------------|--------------------------|
|------------------------|--------------------------|
|------------------------|--------------------------|
|------------------------|--------------------------|
|----9----------11-------|----10---------10-14------|
|-10---0-0-0-13----0-0-0-|-12----0-0-0-0-------0-0--|


 Verse A
  Q=230
  Gtr I
      PM|           PM--|      PM--|
|-----------------|-----------------------|
|-----------------|-----------------------|
|-------------7---|-----------------------|
|-9\------7-9---9-|-------14-9-------12-9-|
|-7\--------------|-----------------------|
|-----0-0---------|-0-0-0------0-0-0------|
|
| Gtr II
|     PM|           PM--|      PM--|
|-----------------|-----------------------|
|-----------------|-----------------------|
|-----------------|-----------------------|
|-9\----------5---|-----------------------|
|-7\------5-7---7-|-------12-7-------10-7-|
|-----0-0---------|-0-0-0------0-0-0------|


  PM----|      PM----|
|---------------------------|----------------------|
|---------------------------|----------------------|
|---------------------------|----------------------|
|---------12-9---------12-9-|-10-12-9-10-7-9-------|
|---------------------------|----------------10-12-|
|-0-0---0------0-0---0------|----------------------|
|
| PM--|        PM--|
|---------------------------|----------------------|
|---------------------------|----------------------|
|---------------------------|----------------------|
|---------------------------|----------------------|
|---------10-7---------10-7-|--8----7--8-5-7--3--5-|
|-0---7--------0---7--------|-----5----------------|


  Gtr I
       PM|           PM--|      PM--|
|------------------|-----------------------|
|------------------|-----------------------|
|-10\----------5---|-----------------------|
|-10\------5-7---7-|-------12-7-------10-7-|
|--8\--------------|-----------------------|
|------0-0---------|-0-0-0------0-0-0------|
|
| Gtr II
|      PM|           PM--|      PM--|
|------------------|-----------------------|
|------------------|-----------------------|
|-10\--------------|-----------------------|
|-10\----------3---|-----------------------|
|--8\------3-5---5-|-------10-5--------8-5-|
|------0-0---------|-0-0-0------0-0-0------|


  PM--|      PM|
|------------------------|---------------------------------------|
|------------------------|---------------------------------------|
|------------------------|---------------------------------------|
|-------10-7-------------|---------------------------------------|
|------------------------|-9-9-9-9-10-10-10-10-9-9-9-9-----------|
|-0-0-0------0-0-7-7-7-7-|-----------------------------7-7-7-7---|
|
| PM--|      PM|
|------------------------|---------------------------------------|
|------------------------|---------------------------------------|
|------------------------|---------------------------------------|
|------------------------|---------------------------------------|
|--------8-5-------------|-9-9-9-9-10-10-10-10-9-9-9-9-----------|
|-0-0-0------0-0-7-7-7-7-|-----------------------------7-7-7-7---|


  Gtr I
      PM|           PM--|      PM--|
|-----------------|-----------------------|
|-----------------|-----------------------|
|-------------7---|-----------------------|
|-9\------7-9---9-|-------14-9-------12-9-|
|-7\--------------|-----------------------|
|-----0-0---------|-0-0-0------0-0-0------|
|
| Gtr II
|     PM|           PM--|      PM--|
|-----------------|-----------------------|
|-----------------|-----------------------|
|-----------------|-----------------------|
|-9\----------5---|-----------------------|
|-7\------5-7---7-|-------12-7-------10-7-|
|-----0-0---------|-0-0-0------0-0-0------|


  PM--|      PM--|           PM|    PM|
|-----------------------|---------------|
|-----------------------|---------------|
|-----------------------|---------------|
|-------12-9-------12-9-|---------------|
|-----------------------|-7------5------|
|-0-0-0------0-0-0------|-9--0-0-6--0-0-|
|
| PM--|      PM--|           PM|    PM|
|-----------------------|---------------|
|-----------------------|---------------|
|-----------------------|---------------|
|-----------------------|---------------|
|-------10-7-------10-7-|-7------5------|
|-0-0-0------0-0-0------|-9--0-0-6--0-0-|


  Gtr I
       PM|           PM--|      PM|
|------------------|------------------------|
|------------------|------------------------|
|-10\----------5---|------------------------|
|-10\------5-7---7-|-------12-7-------------|
|--8\--------------|------------------------|
|------0-0---------|-0-0-0------0-0-7-7-7-7-|
|
| Gtr II
|      PM|           PM--|      PM|
|------------------|------------------------|
|------------------|------------------------|
|-10\--------------|------------------------|
|-10\----------3---|------------------------|
|--8\------3-5---5-|-------10-5-------------|
|------0-0---------|-0-0-0------0-0-7-7-7-7-|


|-------------------------------------|-------------------------------------|
|-------------------------------------|-------------------------------------|
|-------------------------------------|-------------------------------------|
|-------------------------------------|---------10-10-10-10-----------------|
|-9-9-9-9-10-10-10-10-9-9-9-9---------|---------------------8-8-8-8-5-5-5-5-|
|-----------------------------7-7-7-7-|-6-6-6-6-----------------------------|
|
|-------------------------------------|-------------------------------------|
|-------------------------------------|-------------------------------------|
|-------------------------------------|-------------------------------------|
|-------------------------------------|---------10-10-10-10-----------------|
|-9-9-9-9-10-10-10-10-9-9-9-9---------|---------------------8-8-8-8-5-5-5-5-|
|-----------------------------7-7-7-7-|-6-6-6-6-----------------------------|


 Bridge
  Gtr I
  PM--------------------------------|         PM---------------------------|
|-------------------|-----------------------|-------------|--------------------|
|-------------------|-----------------------|-------------|--------------------|
|----4---7----------|-----------------------|-------------|--------------------|
|-2----5------------|-----------------------|-------------|--------------------|
|------------7---11-|------11-10------------|-5-7-8-7---9-|-8--10-11-9--10-12--|
|----------5---8----|-9-12-------12-11-9h11-|-3-5-6-5---7-|-6---8--9-7---8-10--|
|
| Gtr II
|                                             PM---------------------------|
|-------------------|-----------------------|-------------|--------------------|
|-------------------|-----------------------|-------------|--------------------|
|-------------------|-----------------------|-------------|--------------------|
|-9\----------------|-----------------------|-------------|--------------------|
|-7\----------------|-----------------------|-5-7-8-7---9-|-8--10-11-9--10-12--|
|-------------------|-----------------------|-3-5-6-5---7-|-6---8--9-7---8-10--|


  Gtrs I, II
  PM-------------------------------|                                     PM
|------------------|-----------------------|---------------------------------|
|------------------|-----------------------|---------------------------------|
|---4---7----------|-----------------------|---------------------------------|
|-2---5------------|-----------------------|---------------------------------|
|-----------7---11-|------11-10------------|-----------------------------9---|
|---------5---8----|-9-12-------12-11-9h11-|-8-8-8-8-8-8-8-8-8-8-8-8-8-8-----|


  Gtrs I, II
   PM----------|                                   PM---------------|
|--------------------|-------------------------------|----------------------|
|--------------------|-------------------------------|----------------------|
|--------------------|-------------------------------|----------------------|
|--------------------|-------------------------------|----------------------|
|--------------------|-----------------------------9-|----------------------|
|-12-11-9-11-9-7-6h7-|-6-6-6-6-6-6-6-6-6-6-6-6-6-6---|-12-11-9-11-9-7-6h7---|


 Breakdown
  Q=120
 6/8
  Gtrs I, II
  PM------|     PM------|     PM------|
|-------------|-------------|-------------|-------------|
|-------------|-------------|-------------|-------------|
|-------------|-------------|-------------|-------------|
|-------------|-------------|-------------|-------------|
|-4-3-4-3-3-7-|-4-3-4-3-3-6-|-4-3-4-3-3-7-|-4-2-4S7-4-2-|
|-2-1-2-1-1-6-|-2-1-2-1-1-5-|-2-1-2-1-1-6-|-3-1-3S6-3-1-|


  Gtrs I, II
  PM------|     PM------|     PM------|       PM  PM  PM
|-------------|-------------|-------------|--------------|
|-------------|-------------|-------------|--------------|
|-------------|-------------|-------------|--------------|
|-------------|-------------|-----------2-|--------------|
|-4-3-4-3-3-7-|-4-3-4-3-3-6-|-4-3-4-3-3-1-|-4---4---4----|
|-2-1-2-1-1-6-|-2-1-2-1-1-5-|-2-1-2-1-1---|-2-0-2-0-2-0--|


  Gtrs I, II
    PM----|     PM------|     PM------|
|-------------|-------------|-------------|--------------|
|-------------|-------------|-------------|--------------|
|-------------|-------------|-------------|--------------|
|-------------|-------------|-------------|--------------|
|-4-3-4-3-3-7-|-4-3-4-3-3-6-|-4-3-4-3-3-7-|-4-2-4S7-4-2--|
|-2-1-2-1-1-6-|-2-1-2-1-1-5-|-2-1-2-1-1-6-|-3-1-3S6-3-1--|


  Gtrs I, II
  PM------|     PM------|     PM------|       PM  PM  PM    PM  PM
|-------------|-------------|-------------|-------------|--------------|
|-------------|-------------|-------------|-------------|--------------|
|-------------|-------------|-------------|-------------|--------------|
|-------------|-------------|-----------2-|-------------|--------------|
|-4-3-4-3-3-7-|-4-3-4-3-3-6-|-4-3-4-3-3-1-|-4---4---4---|-4---4---4-5--|
|-2-1-2-1-1-6-|-2-1-2-1-1-5-|-2-1-2-1-1---|-2-0-2-0-2-0-|-2-0-2-0------|


   Bridge
    Q=220
    Gtrs I, II
      PM------|     PM------|     PM------|     PM  PM  PM
||--------------|-------------|-------------|-------------|
||o-------------|-------------|-------------|-------------|
||--------------|-------------|-------------|-------------|
||--2-----------|-------------|-2-----------|-------------|
||o-------------|-2-----------|-------------|-2---2---1---|
||----3-2-0-2-3-|---3-2-0-2-3-|---3-2-0-2-3-|---3---3---2-|


  Gtrs I, II
    PM------|     PM------|     PM------|     PM  PM  PM
|-------------|-------------|-------------|--------------|
|-------------|-------------|-------------|--------------|
|-------------|-------------|-------------|--------------|
|-1-----------|-------------|-1-----------|--------------|
|-------------|-1-----------|-------------|-1---1---2----|
|---3-2-0-2-3-|---3-2-0-2-3-|---3-2-0-2-3-|---2---2---3--|


  Gtrs I, II
    PM--|                        PM----------------------|
|---------------|--------------|-------------|---------------||
|---------------|--------------|-------------|--------------o||
|---------------|--------------|-------------|---------------||
|---------------|-------4tr5---|---------4-5-|-6-5-----------||
|-4---7---3tr4--|---4-5--------|-3---5---2-3-|-4-3---1-4-5--o||
|-2-0-5-0-------|-0-2-3--------|-1-0-3-0-2-3-|-4-3-3---2-3---||


    Gtr I
      PM------|     PM------|     PM------|     PM  PM  PM
||--------------|-------------|-------------|-------------|
||o-------------|-------------|-------------|-------------|
||--------------|-------------|-------------|-------------|
||--5-----------|-------------|-6-----------|-------------|
||o-------------|-5-----------|-------------|-5---5---4---|
||----6-5-6-5-6-|---6-5-6-5-6-|---6-5-6-5-6-|---6---6---5-|
|
|   Gtr II
|     PM------|     PM------|     PM------|     PM  PM  PM
||--------------|-------------|-------------|-------------|
||o-------------|-------------|-------------|-------------|
||--------------|-------------|-------------|-------------|
||--2-----------|-------------|-2-----------|-------------|
||o-------------|-2-----------|-------------|-2---2---1---|
||----3-2-0-2-3-|---3-2-0-2-3-|---3-2-0-2-3-|---3---3---2-|


  Gtr I
    PM------|     PM------|     PM------|     PM  PM  PM
|-------------|-------------|-------------|---------------||
|-------------|-------------|-------------|--------------o||
|-------------|-------------|-------------|---------------||
|-4-----------|-------------|-4-----------|---------------||
|-------------|-4-----------|-------------|-4---4---5----o||
|---6-5-6-5-6-|---6-5-6-5-6-|---6-5-6-5-6-|---5---5---6---||
|
| Gtr II
|   PM------|     PM------|     PM------|     PM  PM  PM
|-------------|-------------|-------------|---------------||
|-------------|-------------|-------------|--------------o||
|-------------|-------------|-------------|---------------||
|-1-----------|-------------|-1-----------|---------------||
|-------------|-1-----------|-------------|-1---1---2----o||
|---3-2-0-2-3-|---3-2-0-2-3-|---3-2-0-2-3-|---2---2---3---||


  Gtrs I, II
    PM--|                        PM--------|
|---------------|--------------|-------------|-------------|--------------|
|---------------|--------------|-------------|-------------|--------------|
|---------------|--------------|-------------|-------------|--------------|
|---------------|-------4tr5---|---------4-5-|-6-5---5-4---|-6-5---5-4----|
|-4---7---3tr4--|---4-5--------|-3---5---2-3-|-4-3-5-3-2-4-|-4-3-5-3-2-4--|
|-2-0-5-0-------|-0-2-3--------|-1-0-3-0-2-3-|-4-3-3-3-2-2-|-----3-----2--|


 Verse C
  Q=230
 4/4                         5/4
  Gtrs I, II
                          PM--------|
|---------------------------|------------------|
|---------------------------|------------------|
|---------------------------|------------------|
|-9\------------------------|------------------|
|-7\------------------------|---------4-----10-|
|-----2-2-2-2-1-1-1-1-1-1-2-|-5-6-5-2-2------8-|


 4/4
  Gtrs I, II
                          PM        PM|
|---------------------------|-----------------------|
|---------------------------|-----------------------|
|---------------------------|-----------------------|
|-9\------------------------|-----------------------|
|-7\------------------------|-----------------------|
|-----2-2-2-2-1-1-1-1-1-1-2-|-5-6-5-2-5-0-0-0-0-0-0-|


  Gtrs I, II
                          PM        PM------|
|---------------------------|-----------------|
|---------------------------|-----------------|
|---------------------------|-----------------|
|-9\------------------------|-----------------|
|-7\------------------------|-----------------|
|-----2-2-2-2-1-1-1-1-1-1-2-|-5-6-5-2-5-2-2-2-|


  Gtrs I, II
                          PM------------|
|---------------------------|-----------------|
|---------------------------|-----------------|
|---------------------------|-----------------|
|-9\------------------------|-----------------|
|-7\------------------------|-------------2-3-|
|-----2-2-2-2-1-1-1-1-1-1-2-|-5-6-5-2-5-2-----|


 6/8
    PM    PM------------------------|
|-------------|-------------|----------|
|-------------|-------------|----------|
|-------------|-------------|----------|
|---------3-4-|-3---3-4-3---|-5--6--7--|
|-2---2-3-----|---5-------5-|-3--4--5--|
|---3---------|-------------|-3--4--5--|


 4/4
  Gtrs I, II
                          PM        PM|
|---------------------------|-----------------------|
|---------------------------|-----------------------|
|---------------------------|-----------------------|
|-9\------------------------|-----------------------|
|-7\------------------------|-----------------------|
|-----2-2-2-2-1-1-1-1-1-1-2-|-5-6-5-2-5-0-0-0-0-0-0-|


  Gtrs I, II
                          PM--------------|
|---------------------------|-----------------|
|---------------------------|-----------------|
|---------------------------|-----------------|
|-9\------------------------|-----------------|
|-7\------------------------|---------------3-|
|-----2-2-2-2-1-1-1-1-1-1-2-|-5-6-5-2-5-2-1---|


                                               6/8
  Gtrs I, II
                          PM------------|         PM    PM--------------|
|---------------------------|-----------------|-------------|-------------|
|---------------------------|-----------------|-------------|-------------|
|---------------------------|-----------------|-------------|-------------|
|-9\------------------------|-----------------|---------3-4-|-3---3-4-3---|
|-7\------------------------|-------------2-3-|-2---2-3-----|---5-------5-|
|-----2-2-2-2-1-1-1-1-1-1-2-|-5-6-5-2-5-2-----|---3---------|-------------|


 4/4                                                  2/4      4/4
  Gtrs I, II
  PM----------------|                                           PM----------|
|-------------|------------|------------|------------|--------|----------------|
|-------------|------------|------------|------------|--------|----------------|
|-------------|------------|------------|------------|--------|----------------|
|-5-6-7-4-5-6-|------------|------------|------------|--------|-------4-5-6-7--|
|-3-4-5-2-3-4-|-4-3-2-3----|-(3)--------|-(3)--------|-(3)----|-4-3-2-2-3-4-5--|
|-3-4-5-2-3-4-|-2-1-0-1----|-(1)--------|-(1)--------|-(1)----|-2-1-0-2-3-4-5--|


 Guitar Solo
  Q=210
  Gtrs I, II
           PM------|             PM-----|
|-----------------------------------------|
|-----------------------------------------|
|-----------------------------------------|
|--9\-------------------------------------|
|--7\----------------------9-12-----------|
|----------0-----0---0--0--------0-0--0-0-|
|
| Gtr III
|-----------------------------------------|
|-17b19r=(17)b19r==(17)---17-19-20---17---|
|-----------------------------------------|
|-----------------------------------------|
|-----------------------------------------|
|-----------------------------------------|


               PM---------|               PM--|
|---------------------------------------------------|
|---------------------------------------------------|
|---------------------------------------------------|
|---------------------------------------------------|
|-14----10--------------------9----12---------------|
|--------------0--0--0-----0--------------0-0--0----|
|
|---------------------------------------------------|
|-20-19-17-19-17-------------------------19---20-20-|
|----------------19-18-16-19-18-16-18-19------------|
|---------------------------------------------------|
|---------------------------------------------------|
|---------------------------------------------------|


  Gtrs I, II
   PM          PM------|              PM------------
|--------------------------------------------------|
|--------------------------------------------------|
|--------------------------------------------------|
|--------------------------------------------------|
|--------9----------------10-----9-----------------|
|-10-----------0--0--0--0-------------0----0--0----|
|
| Gtr III
|--------------------------------------------------|
|-22-20-20-19-20-19-17-19-17-----------------------|
|----------------------------19-18-16h==18------16-|
|--------------------------------------------19----|
|--------------------------------------------------|
|--------------------------------------------------|


 -|                PM------|            PM----|
|--------------------------------------------------|
|--------------------------------------------------|
|--------------------------------------------------|
|--------------------------------------------------|
|------9-------------------------------------------|
|-10---------------0--0--0-0--7----10---0-------0--|
|
|--------------------------------------------------|
|--------------------------------------------------|
|-----------------16-14-18-------------------------|
|-18-(18)b20r(18)------------16b19r===(16)b18r(16)-|
|--------------------------------------------------|
|--------------------------------------------------|


  Gtrs I, II
        PM-------|          PM-------|
|--------------------------------------|
|--------------------------------------|
|--------------------------------------|
|--9-----------------------------------|
|--7----------------9-12---------------|
|-------0-0----0-0----------0-0----0-0-|
|
| Gtr III
|--------------------------------------|
|--------------------------------------|
|--------------------------------------|
|-16-17-----19-----16----17------------|
|-------------------------------19-----|
|--------------------------------------|


           PM-------|          PM-----|
|----------------------------------------|
|----------------------------------------|
|----------------------------------------|
|----------------------------------------|
|-14-10----------------9-12--------------|
|----------0-0----0-0----------0-0----0--|
|
|----------------------------------------|
|----------------------------------------|
|----------------------------------------|
|-16-------------------------------------|
|-------17-----19-----16----17-----19----|
|----------------------------------------|


  Gtrs I, II
   PM     PM-------|        PM---------|        PM-----|        PM|
|------------------------------------|------------------------------|
|------------------------------------|------------------------------|
|------------------------------------|------------------------------|
|------------------------------------|------------------------------|
|----9----------------11-------------|-------10-----------10-14-----|
|-10------0-0----0-13-------0-0----0-|-12-------0-0--0--0-------0-0-|
|
| Gtr III
|                                       ~~~~~              ~~
|------------------------------------|------------------------------|
|------------------------------------|------------------------------|
|------------------------------------|------------------------------|
|-16---17-----19---16----17----------|-19b21--------17-16-----------|
|-------------------------------19---|--------------------19--------|
|------------------------------------|------------------------------|


  Gtrs I, II
                PM------|               PM------|
|--------------------------------------------------|
|--------------------------------------------------|
|--------------------------------------------------|
|--9\----------------------------------------------|
|--7\-----------------------9----12----------------|
|---------------0--0--0--0--------------0--0--0--0-|
|
| Gtr III
|--------------------------------------------------|
|--------------------------------------------------|
|--------------------------------------16----------|
|--------------------16-16-17-17-19-19----19-17-16-|
|-16--16-17-17-19-19-------------------------------|
|--------------------------------------------------|


               PM------|               PM---------|
|-------------------------------------------------------------|
|-------------------------------------------------------------|
|-------------------------------------------------------------|
|-------------------------------------------------------------|
|-14----10-----------------9----12----------------------------|
|--------------0--0--0--0--------------0-----0-----0----------|
|
|-------------------------------------------------------------|
|----------------------17-17-17-------------------------------|
|-------------16-17-19----------19-17-17h19p17p16-17h19p17p16-|
|-------------------------------------------------------------|
|-19-17-16----------------------------------------------------|
|----------17-------------------------------------------------|


  Gtrs I, II
   PM         PM------|                 PM---|
|-------------------------------------------------|
|-------------------------------------------------|
|-------------------------------------------------|
|-------------------------------------------------|
|-------9-------------------10----9---------------|
|-10----------0--0--0--0----------------0----0----|
|
| Gtr III
|-------------------------------------------------|
|---------------17-20-17h19-17-19h==20-19-17---20h|
|-16-17---19-16-----------------------------------|
|-------------------------------------------------|
|-------------------------------------------------|
|-------------------------------------------------|


               PM---|                  PM|
|----------------------------------------------|
|----------------------------------------------|
|----------------------------------------------|
|----------------------------------------------|
|--7-----------------------5-------------------|
|--9-----------0-----0-----6-----------0--0----|
|
|----------------------------------------------|
|-22p20h22p20----20----------------------------|
|-------------21----21p19-22p21p19h21----------|
|-------------------------------------21-22p21-|
|----------------------------------------------|
|----------------------------------------------|


  Gtrs I, II
   PM-------------------|               PM------|
|-------------------------------------------------|
|-------------------------------------------------|
|-------------------------------------------------|
|--9\---------------------------------------------|
|--7\-----------------------9----12---------------|
|---------------0--0--0--0--------------0--0--0-0-|
|
| Gtr III
|--------------------17-17-20-20-17---------------|
|-17--17-19-20-17-17----------------17-19p17------|
|--------------------------------------------19---|
|-------------------------------------------------|
|-------------------------------------------------|
|-------------------------------------------------|


         PM------|         PM------------|
|-------------------------------------------------|
|-------------------------------------------------|
|-------------------------------------------------|
|-------------------------------------------------|
|-14-10--------------9-12-------------------------|
|--------0--0--0--0--------0--0-----------0-------|
|
|-------------------------------------------------|
|-17p15h17----------------------------------------|
|----------17-16-17-16-14-16h17p16p14-16h17p16p14-|
|-------------------------------------------------|
|-------------------------------------------------|
|-------------------------------------------------|


  Gtrs I, II
   PM          PM---------|            PM--------
|-----------------------------------------------|
|-----------------------------------------------|
|-----------------------------------------------|
|-----------------------------------------------|
|--------9----------------------11--------------|
|-10-----------0--0--0----13-----------0-0---0--|
|
| Gtr III
|-----------------------------------------------|
|-----------------------------------------------|
|-------------------21-21-18-18-19-19------[21]-|
|-----------------------------------------------|
|-16-16-17-17-19-19-------------------20--------|
|-----------------------------------------------|


 -|            PM------|            PM|
|---------------------------------------|
|---------------------------------------|
|---------------------------------------|
|---------------------------------------|
|-------10----------------10----14------|
|-12-----------0--0--0--0-----------0-0-|
|
|---------------------------------------|
|---------------------------------------|
|-19-17-16------------------------------|
|----------19-17-16---------------------|
|-------------------19-17-16------------|
|----------------------------17-17\-----|


   Breakdown
    Gtr I
||--------------|-----------------|--------------|------------------||
||o-------------|-----------------|--------------|-----------------o||
||--------------|-----------------|--------------|------------------||
||--------------|-----------------|--------------|------------------||
||o-7----/10----|-(10)--9h10p9----|-7----9h10-6--|-(6)--7--9--10---o||
||--------------|-----------------|--------------|------------------||
|
|   Gtr II
||--------------|-----------------|--------------|------------------||
||o-------------|-----------------|--------------|-----------------o||
||--------------|-----------------|--------------|------------------||
||--------------|-----------------|--------------|------------------||
||o-7----/10----|-(10)--9h10p9----|-7----9h10-6--|-(6)--7--9--10---o||
||--0------0----|--(0)--0--0-0----|-0----0--0-0--|-(0)--0--0---0----||


 5/4                     4/4
  Gtrs I, II
  PM----------------------------|
|-----------------------|---------------------|
|-----------------------|---------------------|
|-----------------------|---------------------|
|-----------------------|---------------------|
|-3---------------------|---------1---0-0-3-4-|
|-1--0-0-0-0-0--0-2-3-0-|-0-0-0-0---2---0-1-2-|


                        6/8
  PM----|          PM------|   PM--|
|----------------------|---------------|
|----------------------|---------------|
|----------------------|---------------|
|---------------8\-----|---------------|
|-----------4-5-6\-----|-3---4-----4---|
|-0-0-0-0-0-2-3----0-2-|---1-2-0-2-----|


 4/4
  Gtrs I, II
  PM---------------------------------------------
|-------------------------|---------------------|
|-------------------------|---------------------|
|-------------------------|---------------------|
|-------------------------|---------------------|
|-----------------4-5-4-0-|-----------5-4-0-5-3-|
|-0-0-0-0-0-0-0-0-2-3-2-0-|-0-0-0-0-0-3-2-0-3-1-|


 -------------------|   PM----|   PM
|-------------------------|-----------------|
|-------------------------|-----------------|
|---------------------3---|-----3-----------|
|---------------------1---|-----1-----------|
|---------------------1---|-----1-------7---|
|-0-0-0-0-0-0-0-0-0-3---3-|-0-3---3-6h9-6---|


  Gtrs I, II
  PM----------------------------|   PM---------
|-------------------------|-------------------|
|-------------------------|-------------------|
|-------------------------|-------------------|
|-------------------------|-------3-----------|
|-------------------------|-------1---5-0-5-4-|
|-0-0-0-0-0-0-0-0-0-2-3-0-|-0-0-0---0-3-0-3-2-|


 -------------------|
|-------------------------|----------------------|
|-------------------------|----------------------|
|---------------------3S4-|-----3S4-5-----7S5-4--|
|---------------------1S2-|-----1S2-3-----5S3-2--|
|---------------------1S2-|-----1S2-3-----5S3-2--|
|-0-0-0-0-0-0-0-0-0-3-----|-0-0-------0-0--------|


  Gtrs I, II
  PM--------------------------|       PM-------
|-------------------------|-------------------|
|-------------------------|-------------------|
|-------------------------|-------------------|
|-------------------------|-----9---8---------|
|-------------------------|-----7---6-6-3-----|
|-0-0-0-0-0-0-0-0-0-2-3-0-|-0-0---0-------5-2-|


 -------------------|
|------------------------|---------------------|
|------------------------|---------------------|
|---------------------3--|---------3S4-6----3--|
|---------------------1--|---------1S2-4----1--|
|---------------------1--|---------1S2-4----1--|
|-0-0-0-0-0-0-0-0-0-3----|-0-0-0-0-------0-----|


                                                   1.
    Gtr I
||----------------|-------------|----------------|----------------||
||o---------------|-------------|----------------|---------------o||
||----------------|-------------|----------------|----------------||
||----------------|-------------|----------------|----------------||
||o-4----4-6--7-6-|-3----6---7--|-4----6--7-6--7-|-3--4--6---7---o||
||----------------|-------------|----------------|----------------||
|
|   Gtr II
||----------------|-------------|----------------|----------------||
||o---------------|-------------|----------------|---------------o||
||----------------|-------------|----------------|----------------||
||----------------|-------------|----------------|----------------||
||o-7----7-9-10-9-|-6----9--10--|-7----9-10-9-10-|-6--7--9--10---o||
||--0----0-0--0-0-|-0----0---0--|-0----0--0-0--0-|-0--0--0---0----||


  2.
  Gtr I
           PM
|---------------|
|---------------|
|---------------|
|---------------|
|-3--4--6--7----|
|----------0----|
|
| Gtr II
|          PM
|---------------|
|---------------|
|---------------|
|---------------|
|-6--7--9--7----|
|-0--0--0--0----|


 Verse C
  Q=230
 4/4
  Gtrs I, II
                          PM        PM|
|---------------------------|-----------------------|
|---------------------------|-----------------------|
|---------------------------|-----------------------|
|-9\------------------------|-----------------------|
|-7\------------------------|-----------------------|
|-----2-2-2-2-1-1-1-1-1-1-2-|-5-6-5-2-5-0-0-0-0-0-0-|


  Gtrs I, II
                          PM        PM------|
|---------------------------|-----------------|
|---------------------------|-----------------|
|---------------------------|-----------------|
|-9\------------------------|-----------------|
|-7\------------------------|-----------------|
|-----2-2-2-2-1-1-1-1-1-1-2-|-5-6-5-2-5-2-2-2-|


  Gtrs I, II
                          PM------------|
|---------------------------|-----------------|
|---------------------------|-----------------|
|---------------------------|-----------------|
|-9\------------------------|-----------------|
|-7\------------------------|-------------2-3-|
|-----2-2-2-2-1-1-1-1-1-1-2-|-5-6-5-2-5-2-----|


 6/8
    PM    PM------------------------|
|-------------|-------------|----------|
|-------------|-------------|----------|
|-------------|-------------|----------|
|---------3-4-|-3---3-4-3---|-5--6--7--|
|-2---2-3-----|---5-------5-|-3--4--5--|
|---3---------|-------------|-3--4--5--|


 4/4
  Gtrs I, II
                          PM        PM|
|---------------------------|-----------------------|
|---------------------------|-----------------------|
|---------------------------|-----------------------|
|-9\------------------------|-----------------------|
|-7\------------------------|-----------------------|
|-----2-2-2-2-1-1-1-1-1-1-2-|-5-6-5-2-5-0-0-0-0-0-0-|


  Gtrs I, II
                          PM--------------|
|---------------------------|-----------------|
|---------------------------|-----------------|
|---------------------------|-----------------|
|-9\------------------------|-----------------|
|-7\------------------------|---------------3-|
|-----2-2-2-2-1-1-1-1-1-1-2-|-5-6-5-2-5-2-1---|


                                               6/8
  Gtrs I, II
                          PM------------|         PM    PM--------------|
|---------------------------|-----------------|-------------|-------------|
|---------------------------|-----------------|-------------|-------------|
|---------------------------|-----------------|-------------|-------------|
|-9\------------------------|-----------------|---------3-4-|-3---3-4-3---|
|-7\------------------------|-------------2-3-|-2---2-3-----|---5-------5-|
|-----2-2-2-2-1-1-1-1-1-1-2-|-5-6-5-2-5-2-----|---3---------|-------------|


 4/4
  Gtrs I, II
  PM----------------|
|-------------|------------|------------|
|-------------|------------|------------|
|-------------|------------|------------|
|-5-6-7-4-5-6-|------------|------------|
|-3-4-5-2-3-4-|-4-3-0-3----|-(3)--------|
|-3-4-5-2-3-4-|-2-1-0-1----|-(1)--------|


              2/4      4/4
                        PM--------|     PM
|------------|--------|-------------|----------|
|------------|--------|-------------|----------|
|------------|--------|-------------|----------|
|------------|--------|-------4-5-6-|-7-2------|
|-(3)--------|-(3)----|-4-3-2-2-3-4-|-5-2------|
|-(1)--------|-(1)----|-2-1-0-2-3-4-|-5-0------|


|-----|
|-----|
|-----|
|-----|
|-----|
|-----|


   Outro
    Q=240
||------------|-----------|-----------|-----------|
||o-----------|-----------|-----------|-----------|
||------------|-----------|-----------|-----------|
||--3----3----|-4----3----|-3----5----|-5----4----|
||o-3----3----|-3----3----|-3----3----|-3----3----|
||------------|-----------|-----------|-----------|


                PM----------|                 PM----------|
                                                             4x
|-----------|-----------------|-----------|------------------||
|-----------|-----------------|-----------|-----------------o||
|-----------|-----------------|-----------|------------------||
|-2----2----|-3---------------|-2----2----|-3----------------||
|-2----2----|-2---------------|-2----2----|-2---------------o||
|-----------|---0-2-0-1-0-3-1-|-----------|---0-2-0-1-0-3-1--||


Tablature Legend
----------------
 h   - hammer-on
 p   - pull-off
 b   - bend
 pb  - pre-bend
 r   - bend release (if no number after the r, then release immediately)
 /\  - slide into or out of (from/to "nowhere")
 s   - legato slide
 S   - shift slide
<n>  - natural harmonic
[n]  - artificial harmonic
n(n) - tapped harmonic
 ~   - vibrato
 tr  - trill
 T   - tap
 TP  - trem. picking
 PM  - palm muting
\n/  - tremolo bar dip; n = amount to dip
 \n  - tremolo bar down
 n/  - tremolo bar up
/n\  - tremolo bar inverted dip
 =   - hold bend; also acts as connecting device for hammers/pulls
 <>  - volume swell (louder/softer)
 x   - on rhythm slash represents muted slash
 o   - on rhythm slash represents single note slash

Misc Legend
-----------
 |  - bar
||  - double bar
||o - repeat start
o|| - repeat end
*|  - double bar (ending)
 :  - bar (freetime)
 $  - Segno
 &  - Coda
Tempo markers - <E/E./Q/Q./H/H.> = BPM(8/16=s8/s16),
where s8 = swing 8ths, s16 = swing 16ths

  Visit MetalTabs.com for more metal tablature

bottom separator

Contact Us | Privacy Policy | Disclaimer | Legal Notice
Copyright © 2001-2014 MetalTabs.com. All Rights Reserved.