top separator

Home

Forum

What's New

Submit a Tab

FAQ

Links

Contact Us

Link to Us

MetalTabs.com logo

Bands

0-9

A

B

C

D

E

F

G

H

I

J

K

L

M

N

O

P

Q

R

S

T

U

V

W

X

Y

Z

Search

What

Where
 

Neurosis - "I Can See You" Guitar Tab

Plain Text Version
More Neurosis Tabs

Hits: 6921
Rated: 4.00 out of 5 (6 votes)
Updated: 2005-02-08 04:55:59

 

By:

sendpm.gif

email.gif

Important note
This tab is available online because we obtained explicit permission from Neurosis or their label.


#----------------------------------PLEASE NOTE---------------------------------#
#This file is the author's own work and represents their interpretation of the #
#song. You may only use this file for private study, scholarship, or research. #
#Unless specified otherwise, this is NOT an official tab from the band members.#
#------------------------------------------------------------------------------#

  Visit MetalTabs.com for more metal tablature
  
Song  : I Can See You
Band  : Neurosis
Album : The Eye of the Storm

Copyright (c)  Neurot Recordings, 2004

Version 1.0 - November 7, 2004
Version 1.1 - December 7, 2004

Transcribed By: Graham B...
Email:          BG_Flip@hotmail.com

Acoustic Guitar     : Standard Tuning : E A D g b e
Distortion Guitar 1 : Standard Tuning : E A D g b e
Distortion Guitar 2 : Standard Tuning : E A D g b e
Bass                : Standard Tuning : E A D g

Let all notes ring

Part 1 (tabbed in 4/4 - 43 bpm)
                             *
||------------------|-----------------|-----------------|-----------------|
||------------------|-----------------|-----------------|-----------------|
||-------1----------|-----1-2/4\2-1---|-------1---------|-----1-2/4\2-1---|
||-----2-----2------|---------------2-|-----2-----2-----|---------------2-|
||-0----------------|-0---------------|-0---------------|-0---------------|
||------------------|-----------------|-----------------|-----------------|
|| 1 + 2 + 3 + 4 +  | 1 + 2 + 3 + 4 + | 1 + 2 + 3 + 4 + | 1 + 2 + 3 + 4 + |

 |------------------|-----------------|-----------------|-----------------|
 |------------------|-----------------|-----------------|-----------------|
 |------------------|-------1---------|-1-2/4\2-1-------|---1-------------|
 |---0-----0--------|-------2---------|-----------2-----|-2-----2---------|
 |-3---3-5---5------|-4-----0---------|-------------0---|-------------0---|
 |------------------|-----------------|-----------------|-----------------|
 | 1 + 2 + 3 + 4 +  | 1 + 2 + 3 + 4 + | 1 + 2 + 3 + 4 + | 1 + 2 + 3 + 4 + |

 |------------------|-----------------|-----------------|-----------------|
 |------------------|-----------------|-----------------|-----------------|
 |-1-2/4\2-1--------|-----------------|---1---------1-2-|/4\2-1---------1-|
 |-----------2---0--|-----0-----------|---2-------------|-------2-----2---|
 |-------------3----|-3-5---5-----4---|---0-------------|---------0-------|
 |------------------|-----------------|-----------------|-----------------|
 | 1 + 2 + 3 + 4 +  | 1 + 2 + 3 + 4 + | 1 + 2 + 3 + 4 + | 1 + 2 + 3 + 4 + |

 |------------------|-----------------|-----------------|-----------------|
 |------------------|-----------------|-----------------|-----------------|
 |-------------1-2--|/4\2-1-----------|---------------1-|---------1-2-4-6-|
 |---2--------------|-------2---0-----|-0-------------2-|-----------------|
 |---------0--------|---------3---3-5-|---5-----4-----0-|-----------------|
 |------------------|-----------------|-----------------|-----------------|
 | 1 + 2 + 3 + 4 +  | 1 + 2 + 3 + 4 + | 1 + 2 + 3 + 4 + | 1 + 2 + 3 + 4 + |

 |------------------|-----------------|-----------------|-----------------|
 |------------------|-----------------|-----------------|-----------------|
 |---------1--------|-1-2-4-6---------|-1-------1-2/4\2-|-1---------------|
 |---------2--------|-----------------|-2---------------|---2---0-----0---|
 |---------0--------|-----------------|-0---------------|-----3---3-5---5-|
 |------------------|-----------------|-----------------|-----------------|
 | 1 + 2 + 3 + 4 +  | 1 + 2 + 3 + 4 + | 1 + 2 + 3 + 4 + | 1 + 2 + 3 + 4 + |

 |------------------|-----------------|-----------------|-----------------|
 |------------------|-----------------|-----------------|-----------------|
 |-----------1------|-----1-2/4\2-1---|-------1---------|-----1-2/4\2-1---|
 |-----------2------|---------------2-|-----2-----2-----|---------------2-|
 |-----4-----0------|-----------------|-0---------------|-0---------------|
 |------------------|-----------------|-----------------|-----------------|
 | 1 + 2 + 3 + 4 +  | 1 + 2 + 3 + 4 + | 1 + 2 + 3 + 4 + | 1 + 2 + 3 + 4 + |

 |------------------|-----------------|-----------------|-----------------|
 |------------------|-----------------|-----------------|-----------------|
 |------------------|-------1---------|-1-2/4\2-1-------|---1-------------|
 |---0-----0--------|-------2---------|-----------2-----|-2-----2---------|
 |-3---3-5---5------|-4-----0---------|-------------0---|-------------0---|
 |------------------|-----------------|-----------------|-----------------|
 | 1 + 2 + 3 + 4 +  | 1 + 2 + 3 + 4 + | 1 + 2 + 3 + 4 + | 1 + 2 + 3 + 4 + |

 |------------------|-----------------|-----------------|---------||
 |------------------|-----------------|-----------------|---------||
 |-1-2/4\2-1--------|-----------------|---1-------------|---------||
 |-----------2---0--|-----0-----------|---2-------------|---------||
 |-------------3----|-3-5---5-----4---|---0-------------|---------||
 |------------------|-----------------|-----------------|---------||
 | 1 + 2 + 3 + 4 +  | 1 + 2 + 3 + 4 + | 1 + 2 + 3 + 4 + | 1 + 2 + ||

* If you want to get really technical there is actually a ghost note
  before the initial slide. If you listen closely to the recording you'll
  know what I mean.


Part 2 (tabbed in 3/4 - 86 bpm)
||--------------|-------------|-------------|-------------|
||--------------|-------------|-----h-------|-----h-------|
||-----5--------|-----5-------|-----45--4---|-----45--4---|
||---3---3---3--|---3---3---3-|---2---2---2-|---2---2---2-|
||-0-------0----|-0-------0---|-0-----------|-0-----------|
||--------------|-------------|-------------|-------------|
|| 1 + 2 + 3 +  | 1 + 2 + 3 + | 1 + 2 + 3 + | 1 + 2 + 3 + |

 |--------------|-------------|-------------|-------------|
 |--------------|-------------|-----h-------|-----h-------|
 |-----5--------|-----5-------|-----45--4---|-----45--4---|
 |---3---3---3--|---3---3---3-|---2---2---2-|---2---2---2-|
 |-0-------0----|-0-------0---|-0-----------|-0-----------|
 |--------------|-------------|-------------|-------------|
 | 1 + 2 + 3 +  | 1 + 2 + 3 + | 1 + 2 + 3 + | 1 + 2 + 3 + |

 |--------------|-------------|-------------|-------------|
 |--------------|-------------|-------------|------h------|
 |-----4--------|-----4-------|-----4-------|-----5-4-4---|
 |---2---2---2--|---2---2---2-|---2---2---2-|---2---------|
 |-3-------3----|-3-------3---|-0-------0---|-0-----------|
 |--------------|-------------|-------------|-------------|
 | 1 + 2 + 3 +  | 1 + 2 + 3 + | 1 + 2 + 3 + | 1 + 2 + 3 + |

 |--------------|-------------|-------------|-------------|
 |--------------|-------------|-------------|-----h-------|
 |-----5--------|-----5-------|-----4-------|-----45--4---|
 |---3---3---3--|---3---3---3-|---2---2---2-|---2---2-----|
 |-0-------0----|-0-------0---|-0-------0---|-0-----------|
 |--------------|-------------|-------------|-------------|
 | 1 + 2 + 3 +  | 1 + 2 + 3 + | 1 + 2 + 3 + | 1 + 2 + 3 + |

[Add distortion]
 |--------------|-------------|-------------|-------------|
 |--------------|-------------|-------------|-------------|
 |--------------|-------------|-------------|-------------|
 |--------------|-------------|-------------|-------------|
 |--------------|-------------|-------------|-------------|
 |--------------|-------------|-------------|-------------|
 | 1 + 2 + 3 +  | 1 + 2 + 3 + | 1 + 2 + 3 + | 1 + 2 + 3 + |

 |--------------|-------------|-------------|-------------|
 |--------------|-------------|-------------|-------------|
 |--------------|-------------|-------------|-------------|
 |--------------|-------------|-------------|-------------|
 |--------------|-------------|-------------|-------------|
 |--------------|-------------|-------------|-------------|
 | 1 + 2 + 3 +  | 1 + 2 + 3 + | 1 + 2 + 3 + | 1 + 2 + 3 + |

 |--------------|-------------|-------------|-------------|
 |--------------|-------------|-------------|-------------|
 |--------------|-------------|-------------|-------------|
 |--------------|-------------|-------------|-------------|
 |--------------|-------------|-------------|-------------|
 |--------------|-------------|-------------|-------------|
 | 1 + 2 + 3 +  | 1 + 2 + 3 + | 1 + 2 + 3 + | 1 + 2 + 3 + |

 |--------------|-------------|-------------|-------------|
 |--------------|-------------|-------------|-------------|
 |--------------|-------------|-------------|-------------|
 |--------------|-------------|-------------|-------------|
 |--------------|-------------|-------------|-------------|
 |--------------|-------------|-------------|-------------|
 | 1 + 2 + 3 +  | 1 + 2 + 3 + | 1 + 2 + 3 + | 1 + 2 + 3 + |



 |------------------|-----------------|-----------------|-----------------|
 |------------------|-----------------|-----------------|-----------------|
 |------------------|-----------------|-----------------|-----------------|
 |------------------|-----------------|-----------------|-----------------|
 |------------------|-----------------|-----------------|-----------------|
 |------------------|-----------------|-----------------|-----------------|
 | 1 + 2 + 3 + 4 +  | 1 + 2 + 3 + 4 + | 1 + 2 + 3 + 4 + | 1 + 2 + 3 + 4 + |

Please do not steal this tab. I put a lot of work into making it as accurate
and legible as possible. If you wish to reproduce this tab elsewhere please
email me at BG_Flip@hotmail.com and ask first. Thank you.

  Visit MetalTabs.com for more metal tablature

bottom separator

Contact Us | Privacy Policy | Disclaimer | Legal Notice
Copyright © 2001-2014 MetalTabs.com. All Rights Reserved.