top separator

Home

Forum

What's New

Submit a Tab

FAQ

Links

Contact Us

Link to Us

MetalTabs.com logo

Bands

0-9

A

B

C

D

E

F

G

H

I

J

K

L

M

N

O

P

Q

R

S

T

U

V

W

X

Y

Z

Search

What

Where
 

Sodom - "Bombenhagel" Guitar Tab

Plain Text Version
More Sodom Tabs

Hits: 5885
Rated: 4.50 out of 5 (6 votes)
Updated: 2005-03-16 12:51:30

 

By:

MetalThrashingMad

sendpm.gif

email.gif

Important note
This tab is available online because we obtained explicit permission from Sodom or their label.


#----------------------------------PLEASE NOTE---------------------------------#
#This file is the author's own work and represents their interpretation of the #
#song. You may only use this file for private study, scholarship, or research. #
#Unless specified otherwise, this is NOT an official tab from the band members.#
#------------------------------------------------------------------------------#

  Visit MetalTabs.com for more metal tablature
  
Band: Sodom
Album: Persecution Mania
Song: Bombenhagel
Copyright (c) Steamhammer 1987
Version: Final - 3-4-2005
Transcribed By: Steve - MetalThrashingMad
Email: Thrasher502@hotmail.com

* - palm mute                    /
s - slide                       /
~ - vibrato                    /   - bend  up as indicated
h - hammer on
p - pull off                   \
t - right hand tapping          \
( ) - sustained note             \ - bend down as indicated
[] - side note
% - end riff
nh - natural harmonic            |
ph - pinched harmonic            |
tr - trill                       | - pre-bend as indicated
# - percussive note
.+ - continue to next staff      - - - - - hold note as indicated
Suffixes for bends:
5 - half step
1 - whole step
1.5 - step and a half
2 - two steps
2.5 - two and a half steps
[w/bar] - use tremolo bar

Gitarre- Frank "Blackfire" Gosdzik
Tuning E A D G B E


[play 2 times]              [play 7 times]
|--------------------------|--------------------------------------------------|
|--------------------------|--------------------------------------------------|
|--------------------------|--------------------------------------------------|
|-9--9----------7--7-------|-9------------------------7-----------------------|
|-7--7--10--10--5--5--7--7-|-7-7777-7777-10-----------5-5555-5555-7-----------|
|-------8---8---------5--5-%--------------8-8888-8888-------------5-5555-5555-|
                               **** ****    **** ****   **** ****   **** ****

|--------------------------------------------|
|--------------------------------------------|
|--------------------------------------------|
|-9------------------------7-----------------|
|-7-7777-7777-10-----------5-5555-5555-7~~~~-|
|--------------8-8888-8888-------------5~~~~-|
    **** ****    **** ****   **** ****

[play 18 times]
|-------------------------| |---|
|-------------------------| |---|
|-------------------------| |---|
|-------------------------| |---|
|-5h7-----5h7-----5h7-5h7-| |-2-|
|-0--0000-0--0000-0---0---% |-0-|
     ****    ****

[play 2 times]              [play 7 times]
|--------------------------|--------------------------------------------------|
|--------------------------|--------------------------------------------------|
|--------------------------|--------------------------------------------------|
|-9--9----------7--7-------|-9------------------------7-----------------------|
|-7--7--10--10--5--5--7--7-|-7-7777-7777-10-----------5-5555-5555-7-----------|
|-------8---8---------5--5-%--------------8-8888-8888-------------5-5555-5555-|
                               **** ****    **** ****   **** ****   **** ****

|--------------------------------------------|
|--------------------------------------------|
|--------------------------------------------|
|-9------------------------7-----------------|
|-7-7777-7777-10-----------5-5555-5555-7~~~~-|
|--------------8-8888-8888-------------5~~~~-|
    **** ****    **** ****   **** ****

[play 18 times]
|-------------------------| |---|
|-------------------------| |---|
|-------------------------| |---|
|-------------------------| |---|
|-5h7-----5h7-----5h7-5h7-| |-2-|
|-0--0000-0--0000-0---0---% |-0-|
     ****    ****

[play 2 times]              [play 7 times]
|--------------------------|--------------------------------------------------|
|--------------------------|--------------------------------------------------|
|--------------------------|--------------------------------------------------|
|-9--9----------7--7-------|-9------------------------7-----------------------|
|-7--7--10--10--5--5--7--7-|-7-7777-7777-10-----------5-5555-5555-7-----------|
|-------8---8---------5--5-%--------------8-8888-8888-------------5-5555-5555-|
                               **** ****    **** ****   **** ****   **** ****

|--------------------------------------------|
|--------------------------------------------|
|--------------------------------------------|
|-9------------------------7-----------------|
|-7-7777-7777-10-----------5-5555-5555-7~~~~-|
|--------------8-8888-8888-------------5~~~~-|
    **** ****    **** ****   **** ****

|-------------------------------------------------------------------------|
|-------------------------------------------------------------------------|
|-------------------------------------------------------------------------|
|-------------------------------------------------------------------------|
|-5h7-----5h7-----5h7-5h7-5h7-----5h7-----5h7-5h7-5h7-----5h7-----5h7-5h7-|
|-0--0000-0--0000-0---0---0--0000-0--0000-0---0---0--0000-0--0000-0---0---|
|    ****    ****            ****    ****            ****    ****         |
|                                                                         |
|-------------------------------------------------------------------------|
|-------------------------------------------------------------------------|
|--------------------------------------------------s6---------------------|
|--------------6-----------7-----6------------------------9---7---6-------|
|-s7-----9-------------9--------------9---6---7-------------------------9-|
|-------------------------------------------------------------------------|

|-------------------------------------------------------------------------|
|-------------------------------------------------------------------------|
|-------------------------------------------------------------------------|
|-------------------------------------------------------------------------|
|-5h7-----5h7-----5h7-5h7-5h7-----5h7-----5h7-5h7-5h7-----5h7-----5h7-5h7-|
|-0--0000-0--0000-0---0---0--0000-0--0000-0---0---0--0000-0--0000-0---0---|
|   ****    ****             ****    ****            ****    ****         |
|                                                                         |
|-------------------------------------------------------------------------|
|-------------------------------------------------------------------------|
|-------------------------------------------------------------------------|
|-6----------9-------------------------6----------7------6----------------|
|------7------------------s7-----9-----------9----------------9---6---7---|
|-------------------------------------------------------------------------|

|-------------------------------------------------|
|-------------------------------------------------|
|-------------------------------------------------|
|-------------------------------------------------|
|-5h7-----5h7-----5h7-5h7-5h7-----5h7-----5h7-5h7-|
|-0--0000-0--0000-0---0---0--0000-0--0000-0---0---%
|    ****    ****            ****    ****         |
|                                                 |
|-------------------------------------------------|
|-------------------------------------------------|
|--s6---------------------------------------------|
|----------9---7---6--------7p6--------9----------|
|-----------------------9--------7----------------|
|-------------------------------------------------|

|-------------------------------------------------------------------------|
|-------------------------------------------------------------------------|
|-------------------------------------------------------------------------|
|-------------------------------------------------------------------------|
|-5h7-----5h7-----5h7-5h7-5h7-----5h7-----5h7-5h7-5h7-----5h7-----5h7-5h7-|
|-0--0000-0--0000-0---0---0--0000-0--0000-0---0---0--0000-0--0000-0---0---|
|    ****    ****            ****    ****            ****    ****         |
|                                                                         |
|-------------------------------------------------------------------------|
|-------------------------------------------------------------------------|
|-------------------------------------------------------------------------|
|--------6----------------s7-----6----------------s9----7-----6----6---8--|
|-s9---------9---6-------------------9---6--------------------------------|
|--------------------7-----------------------7----------------------------|

|-------------------------------------------------------------------------|
|-------------------------------------------------------------------------|
|-------------------------------------------------------------------------|
|-------------------------------------------------------------------------|
|-5h7-----5h7-----5h7-5h7-5h7-----5h7-----5h7-5h7-5h7-----5h7-----5h7-5h7-|
|-0--0000-0--0000-0---0---0--0000-0--0000-0---0---0--0000-0--0000-0---0---|
|    ****    ****            ****    ****            ****    ****         |
|                                                                         |
|-------------------------------------------------------------------------|
|------------------.5~----------------------------------------------------|
|---------------s9/-----8--8---6------5h6---------------------------------|
|-9----9\----/---------------------9---------9----9---7---6-------6--7----|
|--------\.5/-------------------------------------------------9-----------|
|-------------------------------------------------------------------------|
        [w/bar]  [w/bar]

|-------------------------|
|-------------------------|
|-------------------------|
|-------------------------|
|-5h7-----5h7-----5h7-5h7-|
|-0--0000-0--0000-0---0---|
|    ****    ****         |
|                         |
|-------------------------|
|-------------------------|
|-6-----------------------|
|-----7-------------------|
|---------9-------7\------|
|-------------------\-----|
                  [w/bar]

[play 14 more times]
|-------------------------| |------------|
|-------------------------| |------------|
|-------------------------| |------------|
|-------------------------| |------------|
|-5h7-----5h7-----5h7-5h7-| |----5h7-----|
|-0--0000-0--0000-0---0---% |-00-0--0000-%
     ****    ****             **    ****

END

  Visit MetalTabs.com for more metal tablature

bottom separator

Contact Us | Privacy Policy | Disclaimer | Legal Notice
Copyright © 2001-2014 MetalTabs.com. All Rights Reserved.