top separator

Home

Forum

What's New

Submit a Tab

FAQ

Links

Contact Us

Link to Us

MetalTabs.com logo

Bands

0-9

A

B

C

D

E

F

G

H

I

J

K

L

M

N

O

P

Q

R

S

T

U

V

W

X

Y

Z

Search

What

Where
 

Sodom - "Christ Passion" Guitar Tab

Plain Text Version
More Sodom Tabs

Hits: 5239
Rated: 3.89 out of 5 (9 votes)
Updated: 2005-05-07 09:03:12

 

By:

MetalThrashingMad

sendpm.gif

email.gif

Important note
This tab is available online because we obtained explicit permission from Sodom or their label.


#----------------------------------PLEASE NOTE---------------------------------#
#This file is the author's own work and represents their interpretation of the #
#song. You may only use this file for private study, scholarship, or research. #
#Unless specified otherwise, this is NOT an official tab from the band members.#
#------------------------------------------------------------------------------#

  Visit MetalTabs.com for more metal tablature
  
Band: Sodom
Album: Persecution Mania
Song: Christ Passion
Copyright (c) Steamhammer 1987
Version 1.2 - 04-18-2005
Transcribed By: Steve - MetalThrashingMad
Email: Thrasher502@hotmail.com

Gtr I (E A D G B E) - 'Guitar 1'


    Q=160
   4/4
    Gtr I
    PM|   PM|    PM|     PM|    PM|      PM|   PM|    PM|     PM|
    E E E E E  E E E   E E E  E E E Q    E E E E E  E E E   E E E Q  E E E  3x
||-------------------|-----------------|------------------|-----------------||
||o------------------|-----------------|------------------|----------------o||
||-------------------|-----------------|------------------|-----------------||
||-------------------|--------------7--|------------------|-----------------||
||o-----7-----10-----|-7-----10--------|-----7-----10-----|-7-----8--8-8-8-o||
||--0-0---0-0----0-0-|---0-0----0-0----|-0-0---0-0----0-0-|---0-0-6--6-6-6--||


  PM|   PM|    PM|     PM|    PM|      PM|   PM|    PM|
  E E E E E  E E E   E E E  E E E Q    E E E E E  E E E   E E E E H      W
|------------------|-----------------|------------------|--------------|------|
|------------------|-----------------|------------------|--------------|------|
|------------------|-----------------|------------------|--------------|------|
|------------------|--------------7--|------------------|--------------|------|
|-----7-----10-----|-7-----10--------|-----7-----10-----|-3-2---2------|------|
|-0-0---0-0----0-0-|---0-0----0-0----|-0-0---0-0----0-0-|-----3-0------|------|


    Q=135
      PM--|   PM--|   PM|         PM--|   PM--|   PM|
    E S S S S S S S S S S E E   E S S S S S S S S S S E E
||----------------------------|---------------------------|
||o---------------------------|---------------------------|
||----------------------------|---------------------------|
||--7---------------------5-8-|-7---------------------5-8-|
||o-5-5-5-5---5-5-5---5-5-3-6-|-5-5-5-5---5-5-5---5-5-3-6-|
||----------------------------|---------------------------|


    PM--|   PM--|   PM|
  E S S S S S S S S S S E E    Q.    Q.  Q   4x
|---------------------------|----------------||
|---------------------------|---------------o||
|---------------------------|----------------||
|-7---------------------5-8-|-10-----8---5---||
|-5-5-5-5---5-5-5---5-5-3-6-|--8-----6---3--o||
|---------------------------|----------------||


      PM----------------|         PM----------------|
    E S S S S S S S S S S E E   E S S S S S S S S S S E E
||----------------------------|---------------------------|
||o---------------------------|---------------------------|
||----------------------------|---------------------------|
||--4---------------------2-5-|-4---------------------2-5-|
||o-2-2-2-2-2-2-2-2-2-2-2-0-3-|-2-2-2-2-2-2-2-2-2-2-2-0-3-|
||----------------------------|---------------------------|


    PM----------------|
  E S S S S S S S S S S E E   Q.   Q.   Q
|---------------------------|---------------||
|---------------------------|--------------o||
|---------------------------|---------------||
|-4---------------------2-5-|-7----5----2---||
|-2-2-2-2-2-2-2-2-2-2-2-0-3-|-5----3----0--o||
|---------------------------|---------------||


    Q=135
      PM--|   PM--|   PM|         PM--|   PM--|   PM|
    E S S S S S S S S S S E E   E S S S S S S S S S S E E
||----------------------------|---------------------------|
||o---------------------------|---------------------------|
||----------------------------|---------------------------|
||--7---------------------5-8-|-7---------------------5-8-|
||o-5-5-5-5---5-5-5---5-5-3-6-|-5-5-5-5---5-5-5---5-5-3-6-|
||----------------------------|---------------------------|


    PM--|   PM--|   PM|
  E S S S S S S S S S S E E    Q.    Q.  Q   4x
|---------------------------|----------------||
|---------------------------|---------------o||
|---------------------------|----------------||
|-7---------------------5-8-|-10-----8---5---||
|-5-5-5-5---5-5-5---5-5-3-6-|--8-----6---3--o||
|---------------------------|----------------||


    Q=135
      PM--|   PM--|   PM|         PM--|   PM--|   PM|
    E S S S S S S S S S S E E   E S S S S S S S S S S E E
||----------------------------|---------------------------|
||o---------------------------|---------------------------|
||----------------------------|---------------------------|
||--7---------------------5-8-|-7---------------------5-8-|
||o-5-5-5-5---5-5-5---5-5-3-6-|-5-5-5-5---5-5-5---5-5-3-6-|
||----------------------------|---------------------------|


    PM--|   PM--|   PM|
  E S S S S S S S S S S E E    Q.    Q.  Q   4x
|---------------------------|----------------||
|---------------------------|---------------o||
|---------------------------|----------------||
|-7---------------------5-8-|-10-----8---5---||
|-5-5-5-5---5-5-5---5-5-3-6-|--8-----6---3--o||
|---------------------------|----------------||


  Q.   Q.   Q    W
|--------------|------|
|--------------|------|
|--------------|------|
|-7----5----2--|-4----|
|-5----3----0--|-2----|
|--------------|------|


    Q=220
       PM----|    PM--------------------------------|
    Q  S S S S Q  S S S S   S S S S S S S S S S S S Q
||------------------------|----------------------------|
||o-----------------------|----------------------------|
||------------------------|----------------------------|
||--4----------4----------|----------------------------|
||o-2--2-2-2-2-2--2-2-2-2-|-2-2-2-2-2-2-2-2-2-2-2-2-4--|
||------------------------|-------------------------2--|


     PM----|    PM----------------------|
  Q  S S S S Q  S S S S   S S S S S S S S Q  Q   4x
|-----------------------|------------------------||
|-----------------------|-----------------------o||
|-----------------------|------------------------||
|-----------------------|-----------------6--6---||
|-3----------3----------|-----------------4--4--o||
|-1--1-1-1-1-1--1-1-1-1-|-1-1-1-1-1-1-1-1--------||


    PM-----------------------------------------------------------------
    S S S S S S S S S S S S S S S S   S S S S S S S S S S S S S S S S
||----------------------------------|---------------------------------|
||o---------------------------------|---------------------------------|
||----------------------------------|---------------------------------|
||----------------------------------|---------------------------------|
||o---------------------------------|---------------------------------|
||--4-4-4-4-4-4-4-4-4-4-4-4-4-4-4-4-|-4-4-4-4-4-4-4-4-4-4-4-4-5-5-5-5-|


 -----------------------------------------------------------------|
  S S S S S S S S S S S S S S S S   S S S S S S S S S S S S S S S S     4x
|---------------------------------|-------------------------------------||
|---------------------------------|------------------------------------o||
|---------------------------------|-------------------------------------||
|---------------------------------|-------------------------------------||
|---------------------------------|------------------------------------o||
|-0-0-0-0-0-0-0-0-0-0-0-0-0-0-0-0-|-1-1-1-1-1-1-1-1-5-5-5-5-5-5-5-5-----||


    Q=220
       PM----|    PM--------------------------------|
    Q  S S S S Q  S S S S   S S S S S S S S S S S S Q
||------------------------|----------------------------|
||o-----------------------|----------------------------|
||------------------------|----------------------------|
||--4----------4----------|----------------------------|
||o-2--2-2-2-2-2--2-2-2-2-|-2-2-2-2-2-2-2-2-2-2-2-2-4--|
||------------------------|-------------------------2--|


     PM----|    PM----------------------|
  Q  S S S S Q  S S S S   S S S S S S S S Q  Q   4x
|-----------------------|------------------------||
|-----------------------|-----------------------o||
|-----------------------|------------------------||
|-----------------------|-----------------6--6---||
|-3----------3----------|-----------------4--4--o||
|-1--1-1-1-1-1--1-1-1-1-|-1-1-1-1-1-1-1-1--------||


    PM-----------------------------------------------------------------
    S S S S S S S S S S S S S S S S   S S S S S S S S S S S S S S S S
||----------------------------------|---------------------------------|
||o---------------------------------|---------------------------------|
||----------------------------------|---------------------------------|
||----------------------------------|---------------------------------|
||o---------------------------------|---------------------------------|
||--4-4-4-4-4-4-4-4-4-4-4-4-4-4-4-4-|-4-4-4-4-4-4-4-4-4-4-4-4-5-5-5-5-|


 -----------------------------------------------------------------|
  S S S S S S S S S S S S S S S S   S S S S S S S S S S S S S S S S     4x
|---------------------------------|-------------------------------------||
|---------------------------------|------------------------------------o||
|---------------------------------|-------------------------------------||
|---------------------------------|-------------------------------------||
|---------------------------------|------------------------------------o||
|-0-0-0-0-0-0-0-0-0-0-0-0-0-0-0-0-|-1-1-1-1-1-1-1-1-5-5-5-5-5-5-5-5-----||


  Q=100
                                 PM-------|
  H.      Q      H    Q  Q    Q  S. S. S. S. E E E  3x H    Q  Q    W
|------------||-------------|-----------------------||------------|------|
|------------||o------------|----------------------o||------------|------|
|------------||-------------|-----------------------||------------|------|
|------------||-------------|-----------------------||------------|------|
|-6-------7--||o-2----3--7--|-6--6--6--6--6----7---o||-2----3--7--|-6----|
|-4-------5--||--0----1--5--|-4--4--4--4--4----5----||-0----1--5--|-4----|


  Q=130
  PM------------------------------------------------------------------|
  E E E E E E E E   E E E E E E E E   E E E E E E E E   E E E E E E E E
|-----------------|-----------------|-----------------|-----------------|
|-----------------|-----------------|-----------------|-----------------|
|-----------------|-----------------|-----------------|-----------------|
|-----------------|-----------------|-----------------|-----------------|
|-----------------|-----------------|-----------------|-----------------|
|-0-0-0-0-0-0-0-0-|-0-0-0-0-0-0-0-0-|-0-0-0-0-0-0-0-0-|-0-0-0-0-0-0-0-0-|


    PM----|   PM|     PM----|           PM----|   PM|     PM----|
    E E E E E E E E   E E E E E E E E   E E E E E E E E   E E E E E E E E   4x
||------------------|-----------------|-----------------|-------------------||
||o-----------------|-----------------|-----------------|------------------o||
||------------------|-----------------|-----------------|-------------------||
||----------5-----7-|-------------4S5-|---------5-----7-|-------------6S7---||
||o---------3-----5-|---------5S4-2S3-|---------3-----5-|---------4S5-4S5--o||
||--0-0-0-0---0-0---|-0-0-0-0-3S2-----|-0-0-0-0---0-0---|-0-0-0-0-2S3-------||


  Q=180
  W          +W           +W           +W           +W
|----------|------------|------------|------------|--------|
|----------|------------|------------|------------|--------|
|----------|------------|------------|------------|--------|
|----------|------------|------------|------------|--------|
|-2--------|-(2)--------|-(2)--------|-(2)--------|-(2)----|
|-0--------|-(0)--------|-(0)--------|-(0)--------|-(0)----|


    PM|     PM    PM      PM          PM|     PM    PM      PM
    E E E E E E E E   E E E Q.   Q    E E E E E E E E   E E E Q.   +Q   4x
||------------------|---------------|-----------------|-----------------||
||o-----------------|---------------|-----------------|----------------o||
||------------------|---------------|-----------------|-----------------||
||------5S4---------|---------------|-----5S4---------|-------3----(3)--||
||o-----3S2---4S5---|-5S4---3----3--|-----3S2---4S5---|-5S4---1----(1)-o||
||--0-0-----0-2S3-0-|-3S2-0-1----1--|-0-0-----0-2S3-0-|-3S2-0-----------||


  PM|     PM    PM      PM
  E E E E E E E E   E E E Q.   Q    W          E H..
|-----------------|---------------|----------|----------|
|-----------------|---------------|----------|----------|
|-----------------|---------------|----------|----------|
|-----5S4---------|---------------|----------|----------|
|-----3S2---4S5---|-5S4---3----3--|-2--------|-2--------|
|-0-0-----0-2S3-0-|-3S2-0-1----1--|-0--------|-0--------|


    Q=220
       PM----|    PM--------------------------------|
    Q  S S S S Q  S S S S   S S S S S S S S S S S S Q
||------------------------|----------------------------|
||o-----------------------|----------------------------|
||------------------------|----------------------------|
||--4----------4----------|----------------------------|
||o-2--2-2-2-2-2--2-2-2-2-|-2-2-2-2-2-2-2-2-2-2-2-2-4--|
||------------------------|-------------------------2--|


     PM----|    PM----------------------|
  Q  S S S S Q  S S S S   S S S S S S S S Q  Q   4x
|-----------------------|------------------------||
|-----------------------|-----------------------o||
|-----------------------|------------------------||
|-----------------------|-----------------6--6---||
|-3----------3----------|-----------------4--4--o||
|-1--1-1-1-1-1--1-1-1-1-|-1-1-1-1-1-1-1-1--------||


    PM-----------------------------------------------------------------
    S S S S S S S S S S S S S S S S   S S S S S S S S S S S S S S S S
||----------------------------------|---------------------------------|
||o---------------------------------|---------------------------------|
||----------------------------------|---------------------------------|
||----------------------------------|---------------------------------|
||o---------------------------------|---------------------------------|
||--4-4-4-4-4-4-4-4-4-4-4-4-4-4-4-4-|-4-4-4-4-4-4-4-4-4-4-4-4-5-5-5-5-|


 -----------------------------------------------------------------|
  S S S S S S S S S S S S S S S S   S S S S S S S S S S S S S S S S     4x
|---------------------------------|-------------------------------------||
|---------------------------------|------------------------------------o||
|---------------------------------|-------------------------------------||
|---------------------------------|-------------------------------------||
|---------------------------------|------------------------------------o||
|-0-0-0-0-0-0-0-0-0-0-0-0-0-0-0-0-|-1-1-1-1-1-1-1-1-5-5-5-5-5-5-5-5-----||


    Q=220
       PM----|    PM--------------------------------|
    Q  S S S S Q  S S S S   S S S S S S S S S S S S Q
||------------------------|----------------------------|
||o-----------------------|----------------------------|
||------------------------|----------------------------|
||--4----------4----------|----------------------------|
||o-2--2-2-2-2-2--2-2-2-2-|-2-2-2-2-2-2-2-2-2-2-2-2-4--|
||------------------------|-------------------------2--|


     PM----|    PM----------------------|
  Q  S S S S Q  S S S S   S S S S S S S S Q  Q   4x
|-----------------------|------------------------||
|-----------------------|-----------------------o||
|-----------------------|------------------------||
|-----------------------|-----------------6--6---||
|-3----------3----------|-----------------4--4--o||
|-1--1-1-1-1-1--1-1-1-1-|-1-1-1-1-1-1-1-1--------||


    PM-----------------------------------------------------------------
    S S S S S S S S S S S S S S S S   S S S S S S S S S S S S S S S S
||----------------------------------|---------------------------------|
||o---------------------------------|---------------------------------|
||----------------------------------|---------------------------------|
||----------------------------------|---------------------------------|
||o---------------------------------|---------------------------------|
||--4-4-4-4-4-4-4-4-4-4-4-4-4-4-4-4-|-4-4-4-4-4-4-4-4-4-4-4-4-5-5-5-5-|


 -----------------------------------------------------------------|
  S S S S S S S S S S S S S S S S   S S S S S S S S S S S S S S S S     4x
|---------------------------------|-------------------------------------||
|---------------------------------|------------------------------------o||
|---------------------------------|-------------------------------------||
|---------------------------------|-------------------------------------||
|---------------------------------|------------------------------------o||
|-0-0-0-0-0-0-0-0-0-0-0-0-0-0-0-0-|-1-1-1-1-1-1-1-1-5-5-5-5-5-5-5-5-----||


    Q=220
       PM----|    PM--------------------------------|
    Q  S S S S Q  S S S S   S S S S S S S S S S S S Q
||------------------------|----------------------------|
||o-----------------------|----------------------------|
||------------------------|----------------------------|
||--4----------4----------|----------------------------|
||o-2--2-2-2-2-2--2-2-2-2-|-2-2-2-2-2-2-2-2-2-2-2-2-4--|
||------------------------|-------------------------2--|


     PM----|    PM----------------------|
  Q  S S S S Q  S S S S   S S S S S S S S Q  Q   4x
|-----------------------|------------------------||
|-----------------------|-----------------------o||
|-----------------------|------------------------||
|-----------------------|-----------------6--6---||
|-3----------3----------|-----------------4--4--o||
|-1--1-1-1-1-1--1-1-1-1-|-1-1-1-1-1-1-1-1--------||


    PM-----------------------------------------------------------------
    S S S S S S S S S S S S S S S S   S S S S S S S S S S S S S S S S
||----------------------------------|---------------------------------|
||o---------------------------------|---------------------------------|
||----------------------------------|---------------------------------|
||----------------------------------|---------------------------------|
||o---------------------------------|---------------------------------|
||--4-4-4-4-4-4-4-4-4-4-4-4-4-4-4-4-|-4-4-4-4-4-4-4-4-4-4-4-4-5-5-5-5-|


 -----------------------------------------------------------------|
  S S S S S S S S S S S S S S S S   S S S S S S S S S S S S S S S S     4x
|---------------------------------|-------------------------------------||
|---------------------------------|------------------------------------o||
|---------------------------------|-------------------------------------||
|---------------------------------|-------------------------------------||
|---------------------------------|------------------------------------o||
|-0-0-0-0-0-0-0-0-0-0-0-0-0-0-0-0-|-1-1-1-1-1-1-1-1-5-5-5-5-5-5-5-5-----||


  Q=100
                                 PM-------|
  H.      Q      H    Q  Q    Q  S. S. S. S. E E E  3x H    Q  Q    W
|------------||-------------|-----------------------||------------|------|
|------------||o------------|----------------------o||------------|------|
|------------||-------------|-----------------------||------------|------|
|------------||-------------|-----------------------||------------|------|
|-6-------7--||o-2----3--7--|-6--6--6--6--6----7---o||-2----3--7--|-6----|
|-4-------5--||--0----1--5--|-4--4--4--4--4----5----||-0----1--5--|-4----|


Duration Legend
---------------
W - whole; H - half; Q - quarter; E - 8th; S - 16th;
T - 32nd; X - 64th; a - acciaccatura
+ - note tied to previous; . - note dotted; .. - note double dotted
Uncapitalized letters represent notes that are staccato (1/2 duration)
Irregular groupings are notated above the duration line
Duration letters will always appear directly above the note/fret number it
represents the duration for.  Duration letters with no fret number below them
represent rests.  Multi-bar rests are notated in the form Wxn, where n is the
number of bars to rest for.  Low melody durations appear below the staff

Tablature Legend
----------------
 h   - hammer-on
 p   - pull-off
 b   - bend
 pb  - pre-bend
 r   - bend release (if no number after the r, then release immediately)
 /\  - slide into or out of (from/to "nowhere")
 s   - legato slide
 S   - shift slide
<n>  - natural harmonic
[n]  - artificial harmonic
n(n) - tapped harmonic
 ~   - vibrato
 tr  - trill
 T   - tap
 TP  - trem. picking
 PM  - palm muting
\n/  - tremolo bar dip; n = amount to dip
 \n  - tremolo bar down
 n/  - tremolo bar up
/n\  - tremolo bar inverted dip
 =   - hold bend; also acts as connecting device for hammers/pulls
 <>  - volume swell (louder/softer)
 x   - on rhythm slash represents muted slash
 o   - on rhythm slash represents single note slash

Misc Legend
-----------
 |  - bar
||  - double bar
||o - repeat start
o|| - repeat end
*|  - double bar (ending)
 :  - bar (freetime)
 $  - Segno
 &  - Coda
Tempo markers - <E/E./Q/Q./H/H.> = BPM(8/16=s8/s16),
where s8 = swing 8ths, s16 = swing 16ths

  Visit MetalTabs.com for more metal tablature

bottom separator

Contact Us | Privacy Policy | Disclaimer | Legal Notice
Copyright © 2001-2014 MetalTabs.com. All Rights Reserved.